0



The Deepak Presents Guitar Tabs Tutorial and Lyrics For The Song - "Main Tenu Samjhawan Ki - Female and Male Version" From The Movie "Humpty Sharma Ki Dulhania - HSKD / Virsa / Sung by RFAK, Arijit Singh and Shreya Ghoshal ". To Play / Perform This Song on Guitar, You Should Know How To Play Guitar Chords .

----------------------------------------------------------------------------------------------------------
Song - Main Tenu Samjhawan Ki
Movie - Humpty Sharma Ki Dulhania / Virsa
Actor / Actress - Varun Dhawan, Alia Bhatt
Singer - Rahat Fateh Ali Khan, Arijit Singh, Shreya Ghoshal
Music - Sachin - Jigar, Sharib-Toshi, RFAK
----------------------------------------------------------------------------------------------------------
Chords -
Strumming Pattern -
----------------------------------------------------------------------------------------------------------
Note - D = Down Stroke Strum & U = Up Stroke Strum
Dm / D* / dm / small d = Muted / Chuck Down Stroke Strum
Um / U* / um / small u = Muted / Chuck Up Stroke Strum

For Strumming Pattern / Chords / Tabs listen song carefully and figure out the Suitable Strumming Pattern / Tabs / Chords for respective song.
----------------------------------------------------------------------------------------------------------

=======================================
 >> First 1st Tab Version <<
=======================================

HSKD - Alia Bhatt - Humpty Sharma Ki Dulhania

B|-4-4-3–1——1—4—–4-6-4—-4-6-4—
G|————-3———————————-
Nahi jeena tere baajon, nahi jeena nahi jeena [2 times]

G|-3-0-3-0————0-0———-
D|————-1-3-3———3-1—
Main tenu samjhawan ki

G|-3-0-3-0————0-0———-
D|————-1-3-3———3-1—
Na tere baajo lagda jee

B|————1—–1-1-3——
G|-3-3-0-3—–3———–3–
Tu ki jaane pyar mera

E|————————–1———–
B|———-3-2-1-1-4-3—-3-1——
G|-3-3-0—————————3–
Main kara intezaar tera

E|————1——————-
B|——-3-4—-4-3-1———–
G|-3-3——————1-3-0–
Tu zind tuhio jaan meri

G|-3-0-3-0————0-0———-
D|————-1-3-3———3-1—
Main tenu samjhawan ki

G|-3-0-3-0————0-0———-
D|————-1-3-3———3-1—
Na tere baajo lagda jee

B|——————1-1——1—–
G|-0-3–3-3—3———-3—-1–
Mere dil wich reh ke mere

E|—————-1————
B|-2-1-1—1——-4-3——
G|————————-3–
Dil da haal na jaane

B|—————–1-1–1-4-1——
G|-0-3–3-3–3——————1–
Tere baajon kaleyan beh ke

E|———–1————–
B|—1-1——-4-3-1-1–
G|-1————————
Ronde nain numane

B|—–3-3–4—-3/1–1——
G|-3————————3–
Jeena mera haye

B|——3-3–4—
G|-3————–
Marna mera

E|—3—1———————
B|-4———4—3-1–1——
G|————————–3–
Naal tere see

B|————1—–1-1-3——
G|-3-3-0-3—–3———–3–
Kar aitbaar mera

E|————————–1———–
B|———-3-2-1-1-4-3—-3-1——
G|-3-3-0—————————3–
Main kara intezaar tera

E|————1——————-
B|——-3-4—-4-3-1———–
G|-3-3——————1-3-0–
Tu zind tuhio jaan meri

G|-3-0-3-0————0-0———-
D|————-1-3-3———3-1—
Main tenu samjhawan ki

G|-3-0-3-0————0-0———-
D|————-1-3-3———3-1—
Na tere baajo lagda jee

B|-4-3–4-3-4-1—-4–4-4–5-4–6-3-
Ve changa nahio keeta dila

B|-4-3–4-3-4-1—-4–4-4
Ve changa nahio keeta dila

B|-1-1-1————1——–
G|———-3—1-3—-3-3–
Dil mera tod ke

B|-4-3–4-3-4-1—-4–4-4–5-4–6-3-
Ve bada pachtaya tha

B|-4-3–4-3-4-1—-4–4-4
Ve bada pachtaya tha

B|-1-1-1————1——–
G|———-3—1-3—-3-3–
Mere naal jod ke

Then continue With third Para which is similar to Second Para.


=======================================
 >> Second 2nd Tab Version <<
=======================================

Varun Dhawan, Alia Bhatt - HSKD - Main Tenu Samjhawan Ki - Arijit Singh, Shreya Ghoshal

Nahi jeena tere baajon, nahi jeena nahi jeena (play twice)
B|-4-4-3----------4--------4-6-4-----4-6-4-------------|
G|---------5-3-5------------------------------------------|

Main tenu samjhawan ki
G|-3-----3------------------------------------------------|
D|----5-----5-------3—3/5---5/3/1---------------------|
A|---------------6-----------------------------------------|

Na tere baajo lagda jee
G|-3-----3------------------------------------------------|
D|----5-----5-------3—3/5---5/3/1---------------------|
A|---------------6-----------------------------------------|

Note: repeat above two lines as per song.

Tu ki jaane pyar mera
G|-33-0--3-5—3/5---5-7—7/3--------------------------|
D|---------------------------------------------------------|


Main kara intezaar tera
B|---------3-2-------------------------------------------|
G|-3-3-0-------5---5/8—7/10-7---5-3-----------------|

Tu zind tuhio jaan meri
B|------3--4-6---4/3/1----------------------------------|
G|-33---------------------1-3-0-------------------------|

Main tenu samjhawan ki
G|-3-----3------------------------------------------------|
D|----5-----5-------3—3/5---5/3/1---------------------|
A|---------------6-----------------------------------------|

Na tere bajjo lagda jee (ending line different from previous)
G|-3-----3---3/5--3-------------------------------------|
D|----5----------------3-3—3/6—5/3/1-----------------|

Second Para.

Mere dil wich reh ke mere
G|----3--33—3/5-5—3/5-------------------------------|
D|-5------------------------6----------------------------|

Dil da haal na jaane
G|----5-5---5---10-8—7/3-----------------------------|
D|-6-----------------------------------------------------|

Tere baajon kaleyan beh ke
G|----3--33---3-5-5---5/8--5--------------------------|
D|-5-----------------------------6----------------------|

Ronde nain nimane
G|----55--10-8—7/5--5--------------------------------|
D|-6-----------------------------------------------------|

Jeena mera haye
B|-----33--4—3/1--1----------------------------------|
G|-3--------------------3-------------------------------|

Marna mera
B|------33--4-------------------------------------------|
G|-3----------------------------------------------------|

Naal tere c
B|-4/8---6-4—3/1--1---------------------------------|
G|-----------------------3------------------------------|

Kar aitbaar mera
G|-3-0--3-5—3/5---5-7—7/3-------------------------|
D|------------------------------------------------------|

Main kara intezaar tera
B|---------3-2------------------------------------------|
G|-3-3-0-------5---5/8—7/10-7---5-3----------------|

Tu zind tuhio jaan meri
B|------3--4-6---4/3/1---------------------------------|
G|-33---------------------1-3-0------------------------|

Main tenu samjhawan ki
G|-3-----3----------------------------------------------|
D|----5-----5-------3—3/5---5/3/1-------------------|
A|---------------6---------------------------------------|

Na tere bajjo lagda jee (ending line)
G|-3-----3---3/5--3------------------------------------|
D|----5----------------3-3—3/6—5/3/1---------------|

few lines by Girl singer, let’s see tab

Ve changa nahio keeta dila
B|-4-3--4-3-4------4--44----5p4—6p3---------------|
G|---------------5--------------------------------------|

Ve changa nahio keeta dila
B|-4-3--4-3-4------4--44-----------------------------|
G|---------------5--------------------------------------|

Dil mera tod ke
G|-555-3-------3/5--3-3------------------------------|
D|----------6-------------------------------------------|

Ve bada pachtaya tha
B|-4-3--4-3-4------4--44----5p4—6p3---------------|
G|---------------5--------------------------------------|

Ve bada pachtaya tha
B|-4-3--4-3-4------4--44-----------------------------|
G|---------------5--------------------------------------|

Mere naal jod ke
G|-555-3-------3/5--3-3------------------------------|
D|----------6-------------------------------------------|

Then continue With third Para which is similar to Second Para.


----------------------------------------------------------------------------------------------------------
Movie / Picture / Film - Humpty Sharma Ki Dulhania / Virsa / Sung by RFAK, Arijit Singh and Shreya Ghoshal
Director / Directed by - Shashank Khaitan
Producer / Produced by - Karan Johar, Dharma Productions
Screenplay by - Shashank Khaitan
Studio -
Country - India
Language - Hindi
----------------------------------------------------------------------------------------------------------


Disclaimer -
The Content of this Site is Copyrighted and Sole Property of their Respective Owners and Strictly used for the Educational, Entertainment or fair use only or to Provide Information to the Users. HERE You may allowed to republish contents with a valid backlink to the original source.

Post a Comment Blogger

 
Top