0

Get Free Updates in your Inbox
Follow us on:


The Deepak Presents

Guitar intro Tabs Chords Strumming Pattern Reprise Unplugged Video Lesson Song Lyrics


for - "Bin Tere" from the Movie "I Hate Luv Story". It's a very melodious song and I love the way it's composed. To Play / Perform This Song on Guitar, You Should Know How To Play Guitar Chords / Tabs / Strumming Pattern .

-===============================-
-===============================-


-===============================-
Song Title - Bin Tere Reprise Unplugged
Movie / Film / Album - I Hate Love Story
Actor / Actress / Cast - Sonam Kapoor, Imran Khan, Sameer Dattani, Samir Soni, Bruna Abdullah
Singer - Salim, Sunidhi Chauhan, Shekhar Ravjiani, Shafqat Amanat Ali
Music - Vishal-Shekhar
Lyrics - Vishal Dadlani
Director / Directed by - Punit Malhotra
Producer / Produced by - Hiroo Yash Johar, Karan Johar, Ronnie Screwvala
-===============================-
Note - Listen song carefully and figure out the Suitable Strumming Pattern / Tabs / Chords for respective song. where,
D = Down Stroke Strum and U = Up Stroke Strum
Dm / D* / dm / small d = Muted Chuck Down Stroke Strum
Um / U* / um / small u = Muted Chuck Up Stroke Strum
-===============================-

Bin Tere Solo TABS

e------------------------
b------------------------
g------4-5--5p4----------
d--5-7----------7-5---5--
a-------------------7---7
E------------------------

e------------------------
b------------------------
g----4-5--/9--7\5-4------
d--7----------------7-5--
a-----------------------7
E------------------------

e---------------------------
b---------------------------
g----4-5/9-9-----4-5/12--12-
d-7------------7------------
a---------------------------
E---------------------------

e-----------------------------------
b-------12-13-12--------------------
g-12-14----------14--12-------------
d-----------------------14--12h14p12
a-----------------------------------
E-----------------------------------

e-----------------------------
b-----------------------------
g-----------------------------
d-----12h14--12---------------
a--15-----------15-12---------
E---------------------15-13-12

e---------------------------
b---------------------------
g--5-4------4-5--------------
d------5--------5---7/9\7---
a---------------------------
E---------------------------

e---------------------------3-5-7/8-
b---------------------5-3-----------
g-------4-5-4-----------------------
d--5-7--------7--5------------------
a-----------------------------------
E-----------------------------------

Bin Tere Guitar Chords + Strumming Pattern - I Hate Luv Story

Bin tere song from the movie I hate luv stories. Music director is Vishal-Shekhar.
Lots of chord change and the strum is fast. Difficulty is moderate.

-===============================-
Strumming pattern :- D  UU  D  UU  D
-===============================-

(E)Hai kya yeh (C#m)jo tere (A)mere darmi(E)yaan hai
(E)Andekhi (C#m)ansuni (A)koi das(B)taan hai
(E)Hai kya yeh (C#m)jo tere (A)mere darmi(E)yaan hai
(E)Andekhi (C#m)ansuni (A)koi das(B)taan hai

(E)Lagne (A)lagi, (E)ab zinda(A)gi (B)khaali(A)Hai meri
(E)Lagne (A)lagi, (E)ab zinda(A)gi (B)khaali (A)(lost and lonely)

Bin (E)tere, bin tere, bin (A)tere (lost and lonely)
Koi (Bm)khalish hai (A)hawayon mein bin (E)tere (lost and lonely)
Bin (E)tere, bin (B)tere, bin (A)tere (lost and lonely)
Koi (Bm)khalish hai (A)hawayon mein bin (E)tere (lost and lonely)

(E)Ajnabi se (C#m)huye kyun pal (A)saare
(A)Yeh nazar se nazar yeh (D)milaate hi (E)nahin
(E)Ek gani (C#m)tanhaai cha (A)rahi hai
(A)Manzilein raaston mein hi (D)gum hone (E)lagi

Ho (A)gayi an(Bm)suni har (D)dua ab (A)meri
Reh (A)gayi an(Bm)kahi bin (A)tere (lost and lonely)


Bin (E)tere, bin tere, bin (A)tere (lost and lonely)
Koi (Bm)khalish hai (A)hawayon mein bin (E)tere (lost and lonely)
Bin (E)tere, bin (B)tere, bin (A)tere (lost and lonely)
Koi (Bm)khalish hai (A)hawayon mein bin (E)tere (lost and lonely)

(E)Raah mein (F#m)roshni (A)ne hai kyun (E)haath choda
(E)Iss taraf (F#m)shaam ne (A)kyun hai ap(E)na muh moda
(C#m)Yun ke har (E)subah ek (A)bereham si raat ban (B)gayi

Hai kya yeh (C#m)jo tere (A)mere darmi(E)yaan hai
(E)Andekhi (C#m)ansuni (A)koi das(B)taan hai

(E)Lagne (C#m)lagi, (E)ab zinda(C#m)gi (A)khaali khaali
(E)Lagne (C#m)lagi (E)har saans (C#m)bhi (A)khaali (lost and lonely)
Bin (E)tere, bin tere, bin (A)tere (lost and lonely)
Koi (Bm)khalish hai (A)hawayon mein bin (E)tere (lost and lonely)
Bin (E)tere, bin (B)tere, bin (A)tere (lost and lonely)
Koi (Bm)khalish hai (A)hawayon mein bin (E)tere (lost and lonely)


Click Here 4 More Guitar Lessons


-===============================-
-===============================-

If You Are Looking For Movies Video, Audio mp3 Songs Download File Then Please Check in Above Blue and Black Colored Tabs.
Thank You For Visiting Our Site... TheDeepakDotCom eDeepakDotCom TheGuitarDotin

Disclaimer -
The Content of this Site is Copyrighted and Sole Property of their Respective Owners and Strictly used for the Educational, Entertainment or fair use only or to Provide Information to the Users. HERE You may allowed to republish contents with a valid backlink to the original source.

Post a Comment Blogger

 
Top