0

Get Free Updates in your Inbox
Follow us on:


TheDeepak Presents

Guitar Chords Tabs Hindi Song Lyrics HD Video 

for - "Aye Watan Aye Watan Hamko Teri Kasam" from the Movie "Shaheed". It's a very melodious song and I love the way it's composed. To Play / Perform this song on guitar, You should know how to play guitar Tabs / Chords / Strumming Pattern .


-===============================-
Movie / Film / Album - Shaheed
Song - Ai Watan Hamko Teri Kasam
Singer - Mohammad Rafi
Lyrics / Lyricist - Prem Dhawan and Shaheed Ram Prasad Bismil
Music Composer / Director - Prem Dhawan
Actor / Actress / Star Cast - Manoj KumarPrem ChopraAnant Purushottam Marathe -===============================-
Note - Listen song carefully and figure out the Suitable Strumming Pattern / Chords / Tabs for respective song. where,
D = Down Stroke Strum and U = Up Stroke Strum
Dm / D* / dm / small d = Muted Chuck Down Stroke Strum
Um / U* / um / small u = Muted Chuck Up Stroke Strum
-===============================-


Strumming Pattern: Na


    Jalte bhi gaye kahte bhi gaye
    Aazaadi ke parwaane
    Jeena to usi ka jeena hai
    Jo marna watan pe jaane

Aye wa(G#)tan aye watan hamko teri qa(Fm)sam
Teri (D#)raahon mein jaan tak loo(Fm)ta jaayen(G#)ge
Phool (G#)kyaa cheez hai tere qadmon pe (Fm)ham
Bhent (D#)apne saron ki cha(Fm)dhaa jaayen(G#)ge

Aye wa(G#)tan aye watan hamko teri qa(Fm)sam
Teri (D#)raahon mein jaan tak lu(Fm)taa jaayen(G#)ge
Aye wa(G#)tan aye wa(G#)tan

Koi (D#)Punjab (Fm)se koi (D#)Maharashtra (Fm)se
Koi (D#)UP se hai koi(Fm) Bangal se
Koi (D#)Punjab (Fm)se koi (D#)Maharashtra (Fm)se
Koi (D#)UP se hai koi(Fm) Bangal se
Teri (G#)pooja ki thaali mein laaye hain (D#)ham
Teri (G#)pooja ki thaali mein laaye hain (D#)ham
Phool (D#)har rang (C#)ke aaj (G#)har daal se
Phool (D#)har rang (Fm)ke aaj (D#)har daal (G#)se

Naan (G#)kuchh bhi sahi Par lagan ek (Fm)hai
Jyot (D#)se jyot dil ki ja(Fm)gaa jaayen(G#)ge

Aye wa(G#)tan aye watan hamko teri qa(Fm)sam
Teri (D#)raahon mein jaan tak lu(Fm)taa jaayen(G#)ge
Aye wa(G#)tan aye wa(G#)tan


Click Here 4  Desh Bhakti Patriotic Songs Guitar Lessons 




Aye Watan Humko Teri Kasam Guitar Chords

Jalte Bhi Gaye, kahte Bhi Gaye
Azadi Ke Parwane
Jeen To Usi ka Jeen Hai Jo Marna Watan Pe Jaane

Chorus:
Aye wa(Ab)tan aye watan hamko teri Ka(Fm)sam
Teri (Eb)raahon mein jaan tak loo(Fm)ta jaayen(Ab)ge
Phool (Ab)kyaa cheez hai tere qadmon pe (Fm)hum
Bhent (Eb)apne saron ki cha(Fm)dhaa jaayen(Ab)ge

Repeat: Aye Watan..

Koi (Eb)Punjab (Fm)se koi (Eb)Maharashtra (Fm)se
Koi (Eb)UP se hai koi(Fm) Bangal se..x2
Teri (Ab)pooja ki thaali mein laaye hain (Eb)hum..x2
Phool (Eb)har rang (C#)ke aaj (Ab)har daal se
Phool (Eb)har rang (Fm)ke aaj (Eb)har daal (Ab)se
Naan (Ab)kuchh bhi sahi Par lagan ek (Fm)hai
Jyot (Eb)se jyot dil ki ja(Fm)gaa jaayen(Ab)ge

Chorus:
Aye wa(Ab)tan aye watan hamko teri Ka(Fm)sam
Teri (Eb)raahon mein jaan tak loo(Fm)ta jaayen(Ab)ge
Aye wa(Ab)tan aye wa(Ab)tan


Click Here 4  Desh Bhakti Patriotic Songs Guitar Lessons 


-===============================-
-===============================-


Ae Watan Hamko Teri Kasam Guitar Tabs Shaheed

E ---------------------------------------------------------
B ------------3------------3---------------3--5--5--3----
G --4--5----------4--5----------4--5--------------------
D ---------------------------------------------------------
A ---------------------------------------------------------
E ---------------------------------------------------------
e watan e watan, humko teri kasam ...

E ---------------------------------------------------------
B ---3--5--7--5--5---------------------------------------
G ----------------------7--5--5--7--5--4----------------
D ---------------------------------------------------------
A ---------------------------------------------------------
E ---------------------------------------------------------
teri rahon mein ............

REPEAT ABOVE TWO SEQUENCE 2 TIMES ( X 2 )

E ---------------------------------------------------------
B --7--7--8--8--8--8--8----------7--7--8--8--8--8------
G ---------------------------------------------------------
D ---------------------------------------------------------
A ---------------------------------------------------------
E ---------------------------------------------------------
koi bangal se, koi ................

E -----------5--5--5--5--7--7--5--5--5-------------------
B ---7--8--------------------------------------------------
G ---------------------------------------------------------
D ---------------------------------------------------------
A ---------------------------------------------------------
E ---------------------------------------------------------
koi .................... line 2 finish

REPEAT FROM STANZA 1 for other Paragraph.


If you are looking for movies video, audio mp3 songs download file then please check in above Blue and Black colored tab.
Thank You for visiting our site... TheDeepakDotCom eDeepakDotCom

Disclaimer -
The Content of this Site is Copyrighted and Sole Property of their Respective Owners and Strictly used for the Educational, Entertainment or fair use only or to Provide Information to the Users. HERE You may allowed to republish contents with a valid backlink to the original source.

Post a Comment Blogger

 
Top