0

Get Free Updates in your Inbox
Follow us on:


TheDeepak Presents

Guitar Chords Tabs Hindi Song Lyrics HD Video 

for - "Maa Tujhe Salaam (Vande Maatram)" by "A.R Rahman". It's a very melodious song and I love the way it's composed. To Play / Perform this song on guitar, You should know how to play guitar Tabs / Chords / Strumming Pattern .




-===============================-
Movie / Film / Album - Vande Maatram
Song - Maa Tujhe Salam
Singer - A.R Rahman
Lyrics / Lyricist - Mehboob
Music Composer / Director - A.R Rahman
Actor / Actress / Star Cast -
-===============================-
Note - Listen song carefully and figure out the Suitable Strumming Pattern / Chords / Tabs for respective song. where,
D = Down Stroke Strum and U = Up Stroke Strum
Dm / D* / dm / small d = Muted Chuck Down Stroke Strum
Um / U* / um / small u = Muted Chuck Up Stroke Strum
-===============================-


Strumming Pattern: Na


Maa Tujhe Salaam Guitar Tabs - A R Rahman


Vande Maatram (Back Vocals, sung at strating)
A|-66--666-------------------------------------| (X3)

Line 1
A|-6666--6666--66--66-6--------------------|
E|-----------------------------------------------|

Line 2
D|------6-6-6--8-8—10/11-10-8-6-5---------|
A|-6-6------------------------------------------|

Line 3
A|-6666-66-666--66-6------------------------|
E|-----------------------------------------------|

Line 4
D|-----66-66-88-10/11-10-8-6---------------|
A|-66-------------------------------------------|

Line 5
B|----------9-8---------------------------------|
G|-12-10---------8-----------------------------|
D|---------------------8-------------------------|
Line 6
B|------------9-8-------------------------------|
G|12-12-10---------8--------------------------|
D|-----------------------8-----------------------|

Line 7
B|----------9-8---------------------------------|
G|-12-10---------8-----------------------------|
D|---------------------8-------------------------|

Line 8
G|-8-------8-8-------8------8------------------|
D|----10---------8------10---------------------|

Line 9
G|-10-10--10-10--10-10--10-10--------------|
D|-----------------------------------------------|

Note: Please stay for few seconds on 10th fret
Before sliding to 12th fret.

Line 10
G|-10-8-10---10-8-10---10-8-10/12--------|
D|----------------------------------------------|

Line 11
G|-12-10-12-88-------------------------------|
D|----------------------------------------------|
Line 13
G|-12-10-12-88-------------------------------|
D|----------------------------------------------|

Line 14
G|-12-12-10-12-88---------------------------|
D|----------------------------------------------|

Note: Please see every line for “Vande Maatram”
Carefully. All have small differences.

Line 15 (Vande Maatram)
G|----10/12-8-------10-----------------------|
D|-8-------------10----------------------------|

Line 16
G|----10/12-8-------10-----------------------|
D|-8-------------10----------------------------|

Line 17
G|--------8-10—10/12-10/8------------------|
D|-8-10----------------------------------------|

Line 18
G|-12-10-8--------8---------------------------|
D|-------------10------------------------------|

Line 19
G|--------8-10—10/12-10/8------------------|
D|-8-10----------------------------------------|

Line 20
G|-12-10-8--------8---------------------------|
D|-------------10------------------------------|

Vande Maatram (back vocal)
A|-66-666--------------------------------------|
E|-----------------------------------------------|

Vande Maatram (back vocal)
A|-66-666--------------------------------------|
E|-----------------------------------------------|

The second para is same as above. You just need to play
The above lines but have to change the notes as per lyrics.


Third Paragraph

Line 21
G|-7-8-8---888—7/10-888--------------------|
D|-----------------------------------------------|

Line 22
B|-------8---------------------------------------|
G|-7-8-----10-8--8-8-8------------------------|

Line 23
G|-88-8-7-10-10-------------------------------|
D|-----------------------------------------------|

Line 24
G|--10-10-10-10-8--12-10-10-10------------|
D|-----------------------------------------------|

Line 25
G|-10-10-8---10-10-8---10-10-8--10--------|
D|-----------------------------------------------|

Line 26
G|-10-8-10--8-10--10-10/12-----------------|
D|-----------------------------------------------|

Line 27
G|----10/12-8-------10-----------------------|
D|-8-------------10----------------------------|

Line 28
G|----10/12-8-------10-----------------------|
D|-8-------------10----------------------------|

Line 29
G|--------8-10—10/12-10/8------------------|
D|-8-10----------------------------------------|

Line 30
G|-12-10-8--------8---------------------------|
D|-------------10------------------------------|

Line 31
G|--------8-10—10/12-10/8------------------|
D|-8-10----------------------------------------|

Line 32
G|-12-10-8--------8---------------------------|
D|-------------10------------------------------|

Vande Maatram (back vocal)
A|-66-666--------------------------------------|
E|-----------------------------------------------|

Vande Maatram (back vocal)
A|-66-666--------------------------------------|
E|-----------------------------------------------|


Click Here 4  Desh-Bhakti-Patriotic-Songs 


Maa Tujhe Salaam Guitar Chords - A R Rahman

Strumming Pattern: Na

Verse 1:
(Eb)Yahan wahan sara jahan dekh liya hai,
(Ab)Kahin bhi (Bb)tere jaisa (Cm)koi na(Bb)hi hai;
(Eb)Assi nahin saw din duniya ghuma hai,
(Ab)Nahin kahin (Bb)tere jaisa (Cm)koi na(Bb)hi hai.
(Ab)Mein (Eb)gaaya jahan bhi, (Ab)bas (Eb)teri yaad thi,
(Ab)Jo (Eb)mere saath thi, muzkho tadapati rulati.
(Bb)Sabse pyaari teri surat, pyaar hai bas tera pyaar hai.
(Eb)Maa tuzhe salaam,Maa tuzhe salaam,Amma tuzhe salaam…

Chorus:
(Eb)Vande Maat(Bb)aram [X2]
(Cm)Vande (Eb)Maataram (Bb)Vande (Eb)Maataram [X2]
(Eb)Vande Maataram [X2]

Verse 2:
(repeat the same pattern of Verse1)
Janmo ka ye bhaag hai, ye teraa thikanaa hai
Chuonna chhukaoon tere pyar kaa tarana hai
Chandaa nahin suraj nahin, duniyaa ki daulat nahi
Bas lootungaa tere pyaar kaa khajana
Ek nazar jab teri ek nazar jab teri
Hoti hai pyaar ki hoti hai pyaar ki
Duniyaa tab to meri, chamke, damke, mehke re
Tera chehraa suraj jaisaa, chandse band hai pyaar me

Chorus:
(Eb)Vande Maat(Bb)aram [X2]
(Cm)Vande (Eb)Maataram (Bb)Vande (Eb)Maataram [X2]
(Eb)Vande Maataram [X2]

Bridge:
(Eb)Tere paas hi (Eb)mein aa raha hun, (Ab)apni (Cm)bahen (Bb)khol de
(Eb)Zhor se muzhko (Eb)gale laga le, (Ab)mujhko (Cm)phir woh (Bb)pyaar de
(Eb)Aaaa……(Bb)aaaa…….(Ab)aaaaa……(Cm)aaaaa
(Eb)Tu hi bas zindagi hai, (Bb)tu hi meri mohobbat hai
(Bb)Tere hi pairo mein jannat hai
(Bb)Tu hi dil, tu hi jaan, tu wafah

Chorus:
(F)Vande Mata(Gm)ram (C)Vande Mata(F)ram [PLAY HARD]
(F)Vande Mata(Gm)ram (C)Vande Mata(F)ram [PLAY HARD]
(F)Vande Mata(Gm)ram (C)Vande Mata(F)ram [PLAY SOFT]
(F)Vande Mata(Gm)ram (C)Vande Mata(F)ram [FADE...]


Click Here 4  Desh-Bhakti-Patriotic-Songs 


-===============================-
-===============================-

If you are looking for movies video, audio mp3 songs download file then please check in above Blue and Black colored tab.
Thank You for visiting our site... TheDeepakDotCom eDeepakDotCom

Disclaimer -
The Content of this Site is Copyrighted and Sole Property of their Respective Owners and Strictly used for the Educational, Entertainment or fair use only or to Provide Information to the Users. HERE You may allowed to republish contents with a valid backlink to the original source.

Post a Comment Blogger

 
Top