0

Get Free Updates in your Inbox
Follow us on:

TheDeepak Presents

Chahun Main Ya Na Guitar CHORDS STRUMMING  PATTERN, Hindi song from the movie Aashiqui 2




PlayList 4 Video Song


Movie / Film / Album - Aashiqui-2
Song - Chahun Main Ya Naa
Singer - Arijit Singh, Palak Muchhal
Lyrics / Lyricist - Irshad Kamil
Music Composer / Director - Jeet Gangulli
Actor / Actress - Aditya Roy Kapoor, Shraddha Kapoor
-===============================-
Note - Listen song carefully and figure out the Suitable Strumming Pattern / Chords / Tabs for respective song. where,
D = Down Stroke Strum and U = Up Stroke Strum
Dm / D* / dm / small d = Muted Chuck Down Stroke Strum
Um / U* / um / small u = Muted Chuck Up Stroke Strum
-===============================-


Chahun Main Ya Naa [Guitar CHORDS]


STRUMMING PATTERN: D d UUd
strumming pattern for intro part is D d UUd UUd UUdU

OR

Strumming 1 where girl comes in (dd ud ud u du)
tu hi ye mujko bata de..

Strumming 2 (dd ud ud du du)
itna batadun tukjhko..


[INTRO]
e|---------0-----------------------------------------------------------------|
B|-------------------3---------1p0-------------------------1-3-------1-3--|
G|------2----------------------------2-0-2--------0-2-4--------2-4-------|
D|----2---------2-----------2-------------------3--------------------------|
A|-0---------0-----------0--------------------3------- --------------------|
E|--------------------------------------------1-----------------------------|        X2 times

e|---------3---------1-------------------------------------------------------|
B|-------------------------------1p0-------------------------1-3-------1-3-|
G|------2-----------------------------2-0-2---------0-2-4--------2-4------|
D|----2---------2-----------2---------------------3-------------------------|
A|-0---------0-----------0----------------------3------- -------------------|
E|----------------------------------------------1----------------------------|

Chords behind the piano part after above intro are : Am C G F G

(Am).....(F)...(G)
(Am).....(F)...(G)

(Am)Tu hi ye mujhko (G)bata de
(F)Chahun main ya naa..(G)
(Am)Apne tu dil ka (G)pata de
(F)Chahun main ya naa..(G)       X2 times

(Am)Itna bata doon tujhko
(G)Chaahat pe apni mujhko
(F)Yun to nahi (G)ikhtiyaar
(Am)Phir bhi yeh socha dil ne
(G)Ab jo laga hoon milne
(F)Poochhu tujhe ek (G)baar

(Am)Tu hi ye mujhko (G)bata de
(F)Chahun main ya naa..(G)
(Am)Apne tu dil ka (G)pata de
(F)Chahun main ya naa..(G)

(Am)...(G)...(F)...(G)

(C)Aisi kabhi (Am)pehle
Hui (F)naa thi (G)khwaahishein
(C)Kisi se bhi (Am)milne
Ki naa (F)ki thi (G)koshishein

(Am)Uljhan meri (G)suljha de
(F)Chaahun main ya naa..(G)
(Am)Aankhon aankhon mein (G)jataa de
(F)Chaahun main ya naa..(G)

Strumming change (D D Dudud du)
(C)Mere chhote chhote khwaab hain
Khwabon mein (Em)geet hain
Geeton mein (F)zindagi hai
(G)Chaahat hai (C)preet hai

Abhi main na dekhoon (C)khwaab woo
Jin mein na (Em)tu mile
Le khole (F)honth maine
(G)Ab tak the (C)jo sile

(Am)Mujhko na jitna mujh pe
(G)Utna iss dil ko tujh pe
(F)Hone laga (E)aitbaar
(Am)Tanha lamhon mein apne
(G)Bunti hoon tere sapne
(F)Tujhse hua mujhko (E)pyaar

(Am)Poochungi tujhko (G)kabhi naa
(F)Chaahun main ya naa..(G)
(Am)Tere khaabon mein ab (G)jeena
(F)Chaahun main kyun naa..(G)

(Am).....(F)...(G)
(Am).....(F)...(G)

(Am)Tu hi ye mujhko (G)bata de
(F)Chahun main ya naa..(G)
(Am)Apne tu dil ka (G)pata de
(F)Chahun main ya naa..(G)

Click Here 4  PIANO PART 

[INTRO] E:222100
e|-------0--------------------------------------------------------|
B|-------------3-----1p0-----------------------------------------|
G|-----2-----------------2-0-2-------0-0-4-5-7-7p5p4-5h7----|
D|---2-------2-----2---------------3---3-5-5-7-----------------|
A|-0-------0-----0---------------3-------5-3-x------------------|
E|-----------------------------1----------------------------------| ]X3

U: stroke upward
if you have any problem then watch this video http://youtu.be/WgB5DjbQQY8

[PIANO PART] Am C G D F G Am

[RIFF-1]
 e|--------------------------------------------------|
 B|--------------------------------------------------|
 G|---------4-5-7-7s9-------------5-4---4h5----------|
 D|-----6h7------------------------------------------|
 A|--------------------------------------------------|
 E|--------------------------------------------------|

Disclaimer -
The Content of this Site is Copyrighted and Sole Property of their Respective Owners and Strictly used for the Educational, Entertainment or fair use only or to Provide Information to the Users. HERE You may allowed to republish contents with a valid backlink to the original source.

Post a Comment Blogger

 
Top