0

Get Free Updates in your Inbox
Follow us on:

TheDeepak Presents

Chahun Main Ya Na LYRICS Guitar TABS, Hindi song from the movie Aashiqui 2




PlayList 4 Video Song


Movie / Film / Album - Aashiqui-2
Song - Chahun Main Ya Naa
Singer - Arijit Singh, Palak Muchhal
Lyrics / Lyricist - Irshad Kamil
Music Composer / Director - Jeet Gangulli
Actor / Actress - Aditya Roy Kapoor, Shraddha Kapoor
-===============================-
Note - Listen song carefully and figure out the Suitable Strumming Pattern / Chords / Tabs for respective song. where,
D = Down Stroke Strum and U = Up Stroke Strum
Dm / D* / dm / small d = Muted Chuck Down Stroke Strum
Um / U* / um / small u = Muted Chuck Up Stroke Strum
-===============================-

Chahun Main Ya Naa [Guitar TABS]

Tu hi Je Mujhko Bata De, Chahun Main Jaa Na
E|-----------------------------------------------------|
B|--13-12-13-12-10-12--------10-12-10-10-----|
G|9-----------------------12-12---------------------|


Apne Tu Dil Ka Pata De, Chahun Main Jaa Na
E|-----------------------------------------------------|
B|--13-12-13-12-10-12--------10-12-10-10-----|
G|9-----------------------12-12---------------------|


Itna Bata Doon Tujko, Chaahat Pe Apni Mujhko Yun To Nahi Ikhtiyaar
E|-(12-12-12-12)-(10-10-10)-(10-10-10-10)-------------------------------------------|
B|------------------------------------------------(13-13-13)-(13-13-13-13)-10-13-12--|
G|-------------------------------------------------------------------------------------------|


Phir Bhi Yeh Socha Dil Ne, Ab Jo Laga Hoon Milne Poochu Tujhe Ek Baar
E|-(12-12-12-12)-(10-10-10)-(10-10-10-10)-------------------------------------------|
B|------------------------------------------------(13-13-13)-(13-13-13-13)-10-13-12--|
G|-------------------------------------------------------------------------------------------|


Tu hi Je Mujhko Bata De, Chahun Main Jaa Na
E|-----------------------------------------------------|
B|--13-12-13-12-10-12--------10-12-10-10-------|
G|9-----------------------12-12----------------------|


Apne Tu Dil Ka Pata De, Chahun Main Jaa Na
E|-----------------------------------------------------|
B|--13-12-13-12-10-12--------10-12-10-10-------|
G|9-----------------------12-12----------------------|


Aisi Kabhi Pehle Hui Naa Thi Khwaahishein
E|---------------------------10-12-------------------------|
B|-10-13-10----10-13-13--------13-10------12----------|
G|------------12---------------------------12--------------|


Kisi Se Bhi Milne Ki Naa Ki Thi Koshishein
E|---------------------------10-12-------------------------|
B|-10-13-10----10-13-13--------13-10------12----------|
G|------------12---------------------------12--------------|


Uljhan Meri Suljha de, Chahun Main Jaa Na
E|-----------------------------------------------------|
B|--13-12-13-12-10-12--------10-12-10-10-------|
G|9-----------------------12-12----------------------|


Aankhon Aankhon Mein Jata De,Chahun Main Ja Naa
E|-----------------------------------------------------|
B|--13-12-13-12-10-12--------10-12-10-10-------|
G|9-----------------------12-12----------------------|


Mere Chote Chote Kwaab Hain,Khwabon Mein Geet Hain
B|-------8-------------------13-12-12-10(H)12(PO)10----------------|
G|-9-10---9-7-5-9-10-9-9------------------------------12------------|


Geeton Mein Zindagi Hai,Chaahat Hai, Preet Hai
B|-------8-------------------13-12-12-10(H)12(PO)10----------------|
G|-9-10---9-7-5-9-10-9-9------------------------------12------------|


Abhi Main Na Dekhoon Khwab woo, Jin Mein Na Tu Mile
B|-------8-------------------13-12-12-10(H)12(PO)10----------------|
G|-9-10---9-7-5-9-10-9-9------------------------------12------------|


Le Khole Honth Maine, Ab Tak The Jo Sile
B|-------8-------------------13-12-12-10(H)12(PO)10----------------|
G|-9-10---9-7-5-9-10-9-9------------------------------12------------|


Mujhko Na jitna Mujh Pe, Utna Iss Dil Ko Tujh Pe Hone Laga Aitbaar
E|-(12-12-12-12)-(10-10-10)-(10-10-10-10)-------------------------------------------|
B|------------------------------------------------(13-13-13)-(13-13-13-13)-10-13-12--|
G|-------------------------------------------------------------------------------------------|


Tanha Lamhon Mein Apne, Bunti Hoon Tere Sapne Tujhse Hua Mujhe Pyar
E|-(12-12-12-12)-(10-10-10)-(10-10-10-10)-------------------------------------------|
B|------------------------------------------------(13-13-13)-(13-13-13-13)-10-13-12--|
G|-------------------------------------------------------------------------------------------|


Poochungi Tujhko Kabhi Naa, Chahun Main Ja Na
E|-----------------------------------------------------|
B|--13-12-13-12-10-12--------10-12-10-10-------|
G|9-----------------------12-12----------------------|


Tere Khwabon Mein Ab Jeena, Chaahun Main Jaa Naa
E|-----------------------------------------------------|
B|--13-12-13-12-10-12--------10-12-10-10-------|
G|9-----------------------12-12----------------------|

Another Tab 4  Chahun Main Ya Na 

Chahun Main Ya Na TABS - Aditya Roy Kapoor, Shraddha Kapoor | Aashiqui 2

E|—-3-2-3-3-2-0-2-2-0———0-2-0-0—
B|-0————————-3—3————–
Tuhi ye mujhko bata de, Chahun main ya na

E|—-3-2-3-3-2-0-2-2-0———0-2-0-0—
B|-0————————-3—3————–
Apne tu dil ka pata de, Chahun main ya na       X2 Times


E|–5-5-3-5-3-3-1—-
Itna bata doon tujhko

E|–3-3-1-3-1-1-0—-
chahat pe apni mujhko

E|–1-1-0-1-0——1-0—
B|—————-3———-
Youn to nahin Ikhtiyaar


E|–5-5-3-5-3-3-1—-
Phir bhi ye socha dil ne,

E|–3-3-1-3-1-1-0—-
Ab jo laga hoon milne

E|–1-1-0-1-0——1-0—
B|—————-3———-
Poochhun tujhe ek baar ohhoo..


E|—-3-2-3-3-2-0-2-2-0———0-2-0-0—
B|-0————————-3—3————–
Tuhi ye mujhko bata de, Chahun main ya na

E|—-3-2-3-3-2-0-2-2-0———0-2-0-0—
B|-0————————-3—3————–
Apne tu dil ka pata de, Chahun main ya na

Disclaimer -
The Content of this Site is Copyrighted and Sole Property of their Respective Owners and Strictly used for the Educational, Entertainment or fair use only or to Provide Information to the Users. HERE You may allowed to republish contents with a valid backlink to the original source.

Post a Comment Blogger

 
Top