0

Get Free Updates in your Inbox
Follow us on:

TheDeepak Presents

Sun Raha Hai Guitar TABS, Hindi song from the movie Aashiqui 2




PlayList 4 Video Song


Movie / Film / Album - Aashiqui 2
Song - Sun Raha Hai
Singer - Ankit TiwariShreya Ghoshal
Lyricist / Lyrics - Sandeep Nath
Music Composer / Director - Ankit Tiwari
Actor / Actress - Aditya-Roy-Kapoor, Shraddha-Kapoor
-===============================-
Note - Listen song carefully and figure out the Suitable Tabs for respective song.
-===============================-

Sun Raha Hai [TABS] 

B|-4-3——-4-3——-6-
G|——3-5——-3-5—–
Apne karam ki kar adayein..e.e.e..

B|-4-3————
G|——-5-5-5-5-
Mujhko iraade de

B|-4-3————
G|——-5-5-5-5-
Kasmein de, vaade de

B|-3———3-3-6-6-4-3————
G|—3-5-5——————5-5-5-5-
Meri duaaon ke isharon ko sahare de

B|-4-3————
G|——-5-5-5-5-
Dil ko thikaane de

B|-4-3————
G|——-5-5-5-5-
Naye bahaane de

B|-3———-3-3-6-6-4-3———————
G|—-3-5-5——————5-5-3-3—-3—-
D|—————————————-6—-6-
Khwabon ki barishon ko Mausam ke paimaane de

B|-4-3——-4-3——-6-
G|——3-5——-3-5—–
Apne karam ki kar adayein

B|-4-3——-4-3——-6-
G|——3-5——-3-5—–
Kar de idhar bhi tu nigaahein

B|—-3-4-3——
G|-5———5-5-
Sunn raha hai na tu

B|—-3———3-
G|-5—-3-5-5—-
Ro raha hoon, main

B|—-3-4-3———————
G|-5———-5-5-3-3—-3—-
D|————————6—-6–
Sun raha hai na tu

B|———3—-
G|-5-5-5—-5-
Kyun ro raha hoon main

B|—————–3—3—-3-4-
G|———-5——–5—-5——
D|-5-6-6————————-
Manzilein rusva hain..

B|-3———————
G|—-5-3-3—-3——-
D|————6—-6-5-
Khoya hai raasta

B|—————–3—3—-3-4-
G|———-5——–5—-5——
D|-5-6-6————————-
Aaye le jaaye..

B|-3———————
G|—-5-3-3—-3——-
D|————6—-6-5-
Itni si iltaza

E|-3————3—————
B|—-6-6-6-6—-6-4—-3h4-
G|———————–5——-
Ye meri zamaanat hai

E|-3———-3-4-3————-
B|—-6-6-6———-4—-3h4-
G|————————5——-
Tu meri amaanat hai haan..

B|-4-3——-4-3——-6-
G|——3-5——-3-5—–
Apne karam ki kar adayein

B|-4-3——-4-3——-6-
G|——3-5——-3-5—–
Kar de idhar bhi tu nigaahein

B|—-3-4-3——
G|-5———5-5-
Sunn raha hai na tu

B|—-3———3-
G|-5—-3-5-5—-
Ro raha hoon, main

B|—-3-4-3———————
G|-5———-5-5-3-3—-3—-
D|————————6—-6–
Sun raha hai na tu

B|———3—-
G|-5-5-5—-5-
Kyun ro raha hoon main

Waqt bhi thehra hai
Kaise kyun yeh huaa
Kaass tu aise aaye
Jaise koi duaa
Aa tu rooh ki raahat hai
Tu meri ibaadat hai..

Apne karam ki kar adayein..
Kar de idhar bhi tu nigaahein

Sun raha hai na tu
Ro raha hoon main
Sun raha hai na tu
Kyun ro raha hoon main..

Sun raha hai na tu
Ro raha hoon main
Sun raha hai na tu
Kyun ro raha hoon main
Yaaraa…

==================================================
Version 2  Sun Raha Hai Na Tu Guitar TABS Tutorial - Aashiqui 2  
==================================================

H=hammer on
PO=Pull off
V=vibrato

G|-8-7----------------8-7----------------------------------|
D|------10-10-10-10-----10-10-10-10-------------------|
Mujko Irade de, Kasmein de vaade de

G|-7----------7-7-10-10-7-7-------------------------------------|
D|---8-10-10-----------------10-10-8-6(V)----------------------|
Meri Duaaon Ke Isharon Ko Sahare De


(Repeat Above for next lines)
Dil Ko Thikane De, Naye Bahane De
Khwaabon Ki Baarishon Ko
Mausam Ke Paimane De


G|-8-7-------8-7-------10-8-7-------8-7-------10-------------------|
D|------8-10-----8-10----------8-10-----8-10-----------------------|
Apne Karam Ki Kar Addayein, Kar de idhar bhi tu nigahen


G|-----7-7 (H) 8 (PO)7-5-5-(V)----7-----------7-7 (V)---------|
D|-10-----------------------------10---8-10-10------------------|
Sun Raha Hai Na Tu, Ro Raha Hoon Main

G|-----7-7(H)-8-(PO)-7-5-5-----5-5-5-5-(PO) 0--------|
D|-10-------------------------6-6-------------------------|
Sun Raha Hai Na Tu, Ro Raha Hoon Main


G|------5-5-7-(H)-8 (PO) 78775------------------------------|
D|-5-6-----------------------------8-6-8-6-5------------------|
Manzilen ruswa hain, Khoya hai raasta

G|------5-5-7-(H)-8 (PO) 78775------------------------------|
D|-5-6-----------------------------8-6-8-6-5------------------|
Aaye le jaye itni si ilteazz


G|-12-10-10-10-12-10-8-7-8-----------------------|
D|-----------------------------------------------------|
Tu meri zamanat hai…

G|-12-10-10-10-12-10-8-7-8-7----------------------|
D|-----------------------------------------------------|
Tu meri amaanat hai


G|-8-7-------8-7-------10-8-7-------8-7-------10-------------------|
D|------8-10-----8-10----------8-10-----8-10-----------------------|
Apne Karam Ki Kar Addayein, Kar de idhar bhi tu nigahen


G|-----7-7 (H) 8 (PO)7-5-5-(V)----7-----------7-7 (V)---------|
D|-10-----------------------------10---8-10-10------------------|
Sun Raha Hai Na Tu, Ro Raha Hoon Main

G|-----7-7(H)-8-(PO)-7-5-5-----5-5-5-5-(PO) 0--------|
D|-10-------------------------6-6-------------------------|
Sun Raha Hai Na Tu, Ro Raha Hoon Main

Click Here 4  Sun Raha Hai Chords Version (Capo on 1st fret) 

Disclaimer -
The Content of this Site is Copyrighted and Sole Property of their Respective Owners and Strictly used for the Educational, Entertainment or fair use only or to Provide Information to the Users. HERE You may allowed to republish contents with a valid backlink to the original source.

Post a Comment Blogger

 
Top