0

Get Free Updates in your Inbox
Follow us on:

TheDeepak Presents

Tum Hi Ho Guitar TABS, Hindi song from the movie Aashiqui 2




PlayList 4 Video Song


Movie / Film / Album - Aashiqui-2
Song - Tum Hi Ho
Singer - Arijit Singh
Lyricist / Lyrics - Mithoon
Music Composer / Director - Mithoon
Actor / Actress - Aditya Roy Kapoor, Shraddha Kapoor
-===============================-
Note - Listen song carefully and figure out the Suitable Strumming Pattern / Chords / Tabs for respective song. where,
D = Down Stroke Strum and U = Up Stroke Strum
Dm / D* / dm / small d = Muted Chuck Down Stroke Strum
Um / U* / um / small u = Muted Chuck Up Stroke Strum
-===============================-

Tum Hi Ho [TABS] 

INTRO:
——————————–
———-1—–2—————
——-1—–1—–1–3———
—-3———————5—–      repeats
——————————–
——————————–

if you consider capo , then 1st fret  will become open string , intro notes will look like as follows
——————————–
———-0—–1—————
——-0—–0—–0–2———
—-2———————4—–      repeats
——————————–
——————————–

Tum Hi Ho Guitar Tab Aashiqui 2

E|——–1————————————
B|–1–1—-4–4–2–1———2–1–1–1–
G|————————1–3—————-
Hum tere bin, Ab reh nahi sakte

G|–3–3–1–3–1–0——-0—–
D|———————1–3—–3–
Tere bina kya vajoodh mera

E|——–1————————————
B|–1–1—-4–4–2–1———2–1–1–1–
G|————————1–3—————-
Tujhse jhuda agar ho jayenge

G|–3–3–1–3–1–0———0—–
D|———————-1–3—–3–
Toh khud se hi ho jayenge jhuda

B|———1—————–1———
G|–1–3—–1–3—-1–3—–1–3–
Kyunki tum hi ho, Ab tum hi ho

G|–0–3–1—–0—-0————0–1–3–
D|——————3—-1–3—————-
Zindagi ab tum hi ho…………Melody

B|–1——————1————
G|—–1–3—-1–3——-1–3–
Chaina bhi mera dard bhi

G|–1–0—0–3–1—0—–0——–
D|————————-3—-1–3–
Meri aashiqui ab tum hi ho

E|——–1————————————
B|–1–1—-4–4–2–1———2–1–1–1–
G|————————1–3—————-
Tera mera rishta hai kaisa

G|–3–3–1–3–1–0———0—–
D|———————-1–3—–3–
Ek pal door gawara nahi

E|——–1————————————
B|–1–1—-4–4–2–1———2–1–1–1–
G|————————1–3—————-
Tere liye har roz hain jeete

G|–3–3–1–3–1–0———0—–
D|———————–1–3—–3–
tujhko diya mera waqt sabhi

B|——————————-2—2–1–1—–1–
G|————-0–0—–0—0—————–3—–
D|–1–3—3——–3——————————–
Koi lamha mera na ho tere bina

E|—–1–0————————————
B|–1——–1–1–1————————–
G|———————3–1–3–1–1—-0—-
Har saans pe naam tera……….

Kyunki tum hi ho
Ab tum hi ho
Zindagi ab tum hi ho
Chaina bhi Mera dard bhi
Meri aashiqui ab tum hi ho
Kyun ki tum hi ho
Ab tum hi ho
Meri aashiqui ab tum hi ho

 ======== extended (Edited) ========

E|-1-1——-1—1-3-3————
B|——-4-4————–4-4-2p1-
Tere liye hi jiya main

E|————-1—-1-3-3————-
B|-1-1-2–2—————-4-4-2p1-
Khud ko jo yun de diya hai

B|-2-2-1-2-1-2-1——2-1-
G|——————-3-1——
Teri wafa ne mujhko sambhala

B|-2-2-1-2-1-2-1——2-1-
G|——————-3-1——
Saare ghamon ko dil se nikala

B|——————————-2—2–1–1—–1–
G|————-0–0—–0—0—————–3—–
D|–1–3—3——–3——————————–
Tere saath mera hai naseeb juda

E|—–1–0————————————
B|–1——–1–1–1————————–
G|———————3–1–3–1–1—-0—-
Tujhe paake adhoora naa raha hmm..

B|———1—————–1———
G|–1–3—–1–3—-1–3—–1–3–
Kyunki tum hi ho, Ab tum hi ho

G|–0–3–1—–0—-0————0–1–3–
D|——————3—-1–3—————-
Zindagi ab tum hi ho…………Melody

B|–1——————1————
G|—–1–3—-1–3——-1–3–
Chaina bhi mera dard bhi

G|–1–0—0–3–1—0—–0——–
D|————————-3—-1–3–
Meri aashiqui ab tum hi ho

Click Here 4  Arijit Singh Songs Collection  

====================================
Tum Hi Ho Tabs Starts From 13th Fret Version
====================================

E|---------13-------------------------------------------------|
B|--13-13----16-14-14-13--------------14-13-13------------|
G|-----------------------------13-13-15------------------------|
Hum Tere Bin Ab Reh Nahi Sakte

E|--11-11----11-11---------------------------------------------|
B|---------13--------13-12-8-8-10--------------------------------|
G|------------------------------------------------------------------|
Tere Bina Kya Wazood Mera

E|---------13-------------------------------------------------|
B|--13-13----16-14-14-13--------------14-13-13------------|
G|-----------------------------13-13-15------------------------|
Tujh se juda gar ho jayenge to

E|--11-11----11-11---------------------------------------------|
B|---------13--------13-12-8-8-10--------------------------------|
G|------------------------------------------------------------------|
Khud se hi ho jaayenge judaa

B|----------13-------------------13------------------------|
G|--13-15-----13-15----13-15-----13-15-----------------|
Kyonki Tum Hi Ho Ab Tum Hi Ho

B|-----------------------------------------------------|
G|--12--15-13-12-8-10---12-13-15----------------|
Zindgi Ab Tum Hi Ho,, ho ho ho

B|-13------------------13----------------------------------|
G|----13--15--13-15-----13-15---------------------------|
Chain Bhi Mera Dard bhi

B|-----------------------------------------------------|
G|-12-12-12--15-13-12-8-10-----------------------|
Meri Aashiqui Ab Tum Hi Ho

Disclaimer -
The Content of this Site is Copyrighted and Sole Property of their Respective Owners and Strictly used for the Educational, Entertainment or fair use only or to Provide Information to the Users. HERE You may allowed to republish contents with a valid backlink to the original source.

Post a Comment Blogger

 
Top