0

Get Free Updates in your Inbox
Follow us on:


TheDeepak Presents

Guitar Tabs Hindi Song Lyrics HD Video 

for - "Raghupati Raghav Raja Ram" from the Movie "Krrish 3". It's a very melodious song and I love the way it's composed. To Play / Perform this song on guitar, You should know how to play guitar Tabs / Chords / Strumming Pattern .




-===============================-
Movie / Film / Album - Krish 3
Song - Raghupati Raghav Raja Ram
Singer - Neeraj Shridhar, Monali Thakur, Bob
Lyrics / Lyricist -
Music Composer / Director - Rajesh Roshan
Actor / Actress / Star Cast - Hrithik RoshanVivek OberoiPriyanka ChopraKangana Ranaut
-===============================-
Note - Listen song carefully and figure out the Suitable Strumming Pattern / Chords / Tabs for respective song. where,
D = Down Stroke Strum and U = Up Stroke Strum
Dm / D* / dm / small d = Muted Chuck Down Stroke Strum
Um / U* / um / small u = Muted Chuck Up Stroke Strum
-===============================-


Raghupati Raghav Raja Ram Tabs


B|—————————————-1–0–1–
G|-0–0—0–0–0————–2—2————
D|———————3–2–3——————–
Raghupati Raghav Raja Ram,

G|-2–3–2–0————-3–2–0—-
D|—————3–2–3—————
Patit Pavan Sita Ram

B|-0–0—0–0–0——0–1–0–1—
G|——————–2——————
Ishwar Allah Tero Naam,

B|——–1–3–4–3–1———————
G|-2–2——————–3–2–3–2–0—
Sab ko Sanmti De Bhagavan


Click Here 4  More Guitar Lessons 


Raghupati Raghav Raja Ram Guitar Tabs

E--------------------------5--7-8--7-8----------------------------------
B-----8-8-8--8s10--6-5---6----------------------------------------------
G---7-------------------------------------------------------------------
D-----------------------------------------------------------------------
A-----------------------------------------------------------------------
E-----------------------------------------------------------------------
  raghupati raaghav  raajaaraam

E--4-5--4----------------6-5--------------------------------------------
B----------8--6-5-----6------8-----------------------------------------
G-----------------------------------------------------------------------
D-----------------------------------------------------------------------
A-----------------------------------------------------------------------
E-----------------------------------------------------------------------
  patit    paavan      siitaaraam

[repeat above]

E----7-7-------8-7-8----------------------------------------------------
B--8---------8----------------------------------------------------------
G-----------------------------------------------------------------------
D-----------------------------------------------------------------------
A-----------------------------------------------------------------------
E-----------------------------------------------------------------------
  siitaaraam siitaaraam

E--------8---10-11-10---8-----------------------------------------------
B--10-10------------------11-10-8---------------------------------------
G-----------------------------------------------------------------------
D-----------------------------------------------------------------------
A-----------------------------------------------------------------------
E-----------------------------------------------------------------------
  bhaj pyaare tuu  siitaaraam

========
Music

E-----------------------------------------------------------------------
B---8-8--8-8--8---7-8-10-8--7-5-----------------------------------------
G-----------------------------------------------------------------------
D-----------------------------------------------------------------------
A-----------------------------------------------------------------------
E-----------------------------------------------------------------------


E-------5-5--7-8--7-8---------------------------------------------------
B--6-6------------------------------------------------------------------
G-----------------------------------------------------------------------
D-----------------------------------------------------------------------
A-----------------------------------------------------------------------
E-----------------------------------------------------------------------

E--5--6-6--6-5----------------------------------------------------------
B---------------8--8-8--6-5---------------------------------------------
G-----------------------------------------------------------------------
D-----------------------------------------------------------------------
A-----------------------------------------------------------------------
E-----------------------------------------------------------------------

E-----6-6--6-5----------------------------------------------------------
B--6------------8-------------------------------------------------------
G-----------------------------------------------------------------------
D-----------------------------------------------------------------------
A-----------------------------------------------------------------------
E-----------------------------------------------------------------------

========

E----7-7-7--7s5-5s3----------------7-8-7-8------------------------------
B--8--------------------------8s10--------------------------------------
G-----------------------------------------------------------------------
D-----------------------------------------------------------------------
A-----------------------------------------------------------------------
E-----------------------------------------------------------------------
  iishvar allaah   tere naam...

E--------8---10-11-10---8-----------------------------------------------
B--10-10------------------11-10-8---------------------------------------
G-----------------------------------------------------------------------
D-----------------------------------------------------------------------
A-----------------------------------------------------------------------
E-----------------------------------------------------------------------
  sab ko     sanmati  de bhagavaan


-===============================-
-===============================-

If you are looking for movies video, audio mp3 songs download file then please check in above Blue and Black colored tab.
Thank You for visiting our site... TheDeepakDotCom eDeepakDotCom

Disclaimer -
The Content of this Site is Copyrighted and Sole Property of their Respective Owners and Strictly used for the Educational, Entertainment or fair use only or to Provide Information to the Users. HERE You may allowed to republish contents with a valid backlink to the original source.

Post a Comment Blogger

 
Top