0


TheDeepak Presents

Aahatein Arpegio Guitar Tabs Leads Chords + Strumming Pattern, Hindi song by Agnee at MTV Unplugged & MTV Splitsvilla




PlayList 4 Video Song


Movie / Film / Album - MTV Splitsvilla
Song - Aahatein By Agnee Band
Singer - K. Mohan
Lyricist / Lyrics - Abbas Tyrewala
Music Composer / Director - Agnee Band
-===============================-
Note - Listen song carefully and figure out the Suitable Strumming Pattern / Chords / Tabs for respective song. where,
D = Down Stroke Strum and U = Up Stroke Strum
Dm / D* / dm / small d = Muted Chuck Down Stroke Strum
Um / U* / um / small u = Muted Chuck Up Stroke Strum
-===============================-

Aahatein [TABS] [CHORDS] 
[Strumming Pattern: D UD UUUD]

Arpegio at beginning :

D: 4 stings to lower e down-stroke then hit 1 & 2 upstroke
Bm barre on 7th : 6 to 1 down stroke
Em barre on 7th: 5 to 1 down stroke ... up stoke on 2
F#m on 9th fret: 5 to 2 down stroke...come back 3 up & then hit lightly on lower strings ( 3 to 1 down-stroke )

E A D G B e
X X 0 2 3 2 = D
2 2 4 4 3 2 = Bm
0 2 2 0 3 0 = Em7
X X 2 2 2 2 = F#m7
X 0 2 2 1 0 = Am
0 3 2 0 1 0 = C
X 0 2 2 2 0 = A

(D)Aahatein, ho (Bm)rahin teri
Dil ke (Em7)dar pe mere
Tu (F#m7)yahin hai kahin na kahin
(D)Aahatein, ho (Bm)rahin teri
Dil ke (Em7)dar pe mere
Tu (F#m7)yahin hai kahin

Kabhi (D)mere khwab sa
Kabhi (Bm)uljhe jawaab sa
Ke chanda (Em7)mein bhi daag sa
Mere jaisa (F#m7)tu

Ke dariya (D)ka ho ik sira
Ke armaa(Bm)no ka silsila
Ke sehra (Em7)mein bhi aab sa
Mere jaisa (F#m7)tu, mere jaisa tu

(D)Aahatein, ho (Bm)rahin teri
Dil ke (Em7)dar pe mere
Tu (F#7)yahin hai kahin na (D)kahin

(Am)Tera hoon main, tujhe kyon na (D)yaqeen hai
(Am)Chaahat mein meri aakhir kya (D)kami hai
(Am)Tujhme hi toh chhupi meri (D)khudi hai
(C)Meri (G)khudi kuch na (A)sahi
Kuch (F#m7)na sahi, Kuch na sahi

(D)Aahatein, ho (Bm)rahin teri
Dil ke (Em7)dar pe mere
Tu (F#7)yahin hai kahin

Kabhi (D)mere khwab sa
Kabhi (Bm)uljhe jawaab sa
Ke chanda (Em7)mein bhi daag sa
Mere jaisa (F#m7)tu

Ke tu hi dariya (D)ka hay ik sira
Ke armaa(Bm)no ka silsila
Ke sehra (Em7)mein bhi aab sa
Mere jaisa (F#m7)tu, mere jaisa tu

(D)Aahatein, ho (Bm)rahin teri
Dil ke (Em7)dar pe mere
Tu (F#7)yahin hai kahin na (D)kahin

Click Here 4  MORE Unplugged  

Aahetin Guitar Tabs from Splitsvilla 


"Aahatein" by Agnee -- Lead Part ( guitar )
Here's a little help to u for the lead part in the song " Aahatein" by AGNEE.... Here lead part is played by an Guru with a little interpretations .. :)
Posted by Guitar Guruji on Friday, April 6, 2012


Aahetin Guitar Tabs from Tv Show Splitsvilla 

Aahtein
Line 1
D|-4------2-4-----------------------------------------|
A|-----------------------------------------------------|

Line 2
G|--------7-6-----------------------------------------|
D|-4/7----------7-4----------------------------------|

Line 3
G|-6/7------------------------------------------------|
D|--------4-5---5-2----------------------------------|
A|----------------------4-----------------------------|

Line 4
D|--------4/7---5------------------------------------|
A|-4-5-----------------------------------------------|

Line 5
G|-----7-6-------------------------------------------|
D|-7--------7-4/2---------2-------------------------|
A|---------------------5------------------------------|

Now again repeat from line 1 to 4 & instead of line 5 play line 6.

Kahin
Line 6
G|-------7/6----------------------------------------|
D|-7------------------------------------------------|

Line 7
G|-----6---76--76--7------------------------------|
D|-7------------------------------------------------|

Line 8
G|-7-6h7-9-7--76--76-7--------------------------|
D|---------------------------------------------------|

Line 9
G|-7-6h7-9-6-4-----4------4----------------------|
D|-----------------7-----7--------------------------|

Line 9
G|-4/6--7------------------------------------------|
D|-----------7-7-----------------------------------|

Line 10
G|----6h7h9p6--76-76-7--------------------------|
D|-7------------------------------------------------|

Line 11
G|-7-6-7-9p6-76-76-7----------------------------|
D|--------------------------------------------------|

Line 12
G|-7-6-7—9p6-4-----4------4--------------------|
D|------------------7-----7------------------------|

Line 13
G|-4/6---7----------------------------------------|
D|------------7-7---------------------------------|

Line 14
G|-7-6--------------------------------------------|
D|-------7-4---4/2-------2-----------------------|
A|---------------------5---------------------------|

start from the beginning again.

Second Para goes as follows:

Line 15
B|-------------------------8-7--------------------|
G|----------2-4-6—7/9--------7-----------------|
D|-2-4-5-----------------------------------------|

Line 16
G|---------2-4-44—5/9—5/2--------------------|
D|-2-4-5------------------------4----------------|

Line 17
B|-------------------------8-7--------------------|
G|----------2-4-6—7/9--------7-----------------|
D|-2-4-5-----------------------------------------|

Line 18
G|-7/9---77--------------------------------------|
D|-------------9----------------------------------|

Note: Lyrics of line 19 to 21 are same but musically they are different.

Line 19
G|----7-7-6--------------------------------------|
D|-9----------------------------------------------|

Line 20
D|--------4/7--5-4------------------------------|
A|-4-5-------------------------------------------|

Line 21
G|-------7/6------------------------------------|
D|-4-7--------7—4/2-------2-------------------|
A|-----------------------5-----------------------|

This is the end. Now you can again start from the beginning. Enjoy. Take Care.

Disclaimer -
The Content of this Site is Copyrighted and Sole Property of their Respective Owners and Strictly used for the Educational, Entertainment or fair use only or to Provide Information to the Users. HERE You may allowed to republish contents with a valid backlink to the original source.

Post a Comment Blogger

 
Top