0


TheDeepak Presents

Haye Mera Dil Guitar Tabs Leads, Hindi Punjabi song by YO YO HONEY SINGH feat ALFAAZ




PlayList 4 Video Song


Movie / Film / AlbumThe Boy Next Door
Song - Haye Mera Dil
Singer - Honey Singh, ALFAAZ
Lyricist / Lyrics - Honey Singh
Music Composer / Director - Honey Singh
Actor / Actress - Honey SinghALFAAZ
-===============================-
Note - Listen song carefully and figure out the Suitable Tabs for respective song.
-===============================-

Haye Mera Dil [TABS]

E|—————0-0-0—————————–
B|———3-3———-3-3-2—–2h3-2———
G|-4-4-4————————4———-4p2–
Ro ro ke arzan guzaarda da ae dil -

B|————2-2-2—–|——-2h3-2-3—
G|-2-2-4-2———-4–|—4————–4—
Haye mera dil, haye mera dil

==============Melody===========
B|——–2h3-3—
G|-4—————4—

B|-2h3-3—–
G|————2—

B|-3h5-5-2-

E|———-2-0——0—
B|-3-5———-3—–
================================

E|—————0-0-0—————————–
B|———3-3———-3-3-2—–2h3-2———
G|-4-4-4————————4———-4p2–
Ro ro ke arzan guzaarda da ae dil

B|————2-2-2—–|——-2h3-2-3—
G|-2-2-4-2———-4–|—4————–4—
Haye mera dil, haye mera dil

E|—————0-0-0—————————–
B|———3-3———-3-3-2—–2h3-2———
G|-4-4-4————————4———-4p2–
Jag diyan nazran toh chori kitey mil

B|————2-2-2—–|——-2h3-2-3—
G|-2-2-4-2———-4–|—4————–4—
Haye mera dil, haye mera dil


E|—————————-2—————————
B|—————-5-5-5-5——3-3-2-2-2h3-2——–
G|-4-4-4-4-4————————————-4p2–
Teri yaadan di sandhukdi da ho ke reh geya

B|—————2-2-3-5-3-2——–
G|-2-2-4-2-2——————4-4–
Dil saada khaure kehde raahi pe geya

E|—————————-2—————————
B|—————-5-5-5-5——3-3-2-2-2h3-2——–
G|-4-4-4-4-4————————————-4p2–
Kehnda tuhi saada raah te tuhi manzil

B|————2-2-2—–|——-2h3-2-3—
G|-2-2-4-2———-4–|—4————–4—
Haye mera dil, haye mera dil

E|—————0-0-0—————————–
B|———3-3———-3-3-2—–2h3-2———
G|-4-4-4————————4———-4p2–
Ro ro ke arzan guzaarda da ae dil

B|————2-2-2—–|——-2h3-2-3—
G|-2-2-4-2———-4–|—4————–4—
Haye mera dil, haye mera dil

======Honey Singh's Rap=========
Jinna tere naal si pyaar
Hun kitey ho vi na sakda raatan nu
Main so vi nai sakda ki kara
Main ro vi nai sakda haan

Teri much much nonu sonu monu waali gallan chete aundiyan
Jinna marzi bhulna main chaawa mudh mudh sataundiyan

Mainu chaahidi eh tu ya chaahidi ni tu
Mainu dus ta de girl what to do
Meri jind meri jaan meri rooh eh tu
But bhuldi kyun that I love you

You know its you, just me and you
Phir kyun kardi aen ehda tu
Aape ho gaye eh vakh chal koi na
Hun kalle beh ke royi na tu
================================

E|—————————-2—————————
B|—————-5-5-5-5——3-3-2-2-2h3-2——–
G|-4-4-4-4-4————————————-4p2–
Unjh maadiyan te bhanwe matthe diya leekan ne

B|—————2-2-3-5-3-2——–
G|-2-2-4-2-2——————4-4–
Alfaaz nu haje vi teriyan udeekan ne

E|—————————-2—————————
B|—————-5-5-5-5——3-3-2-2-2h3-2——–
G|-4-4-4-4-4————————————-4p2–
Jeeda Chandigarh lagda na tere bina dil

B|————2-2-2—–|——-2h3-2-3—
G|-2-2-4-2———-4–|—4————–4—
Haye mera dil, haye mera dil

E|—————0-0-0—————————–
B|———3-3———-3-3-2—–2h3-2———
G|-4-4-4————————4———-4p2–
Ro ro ke arzan guzaarda da ae dil

B|————2-2-2—–|——-2h3-2-3—
G|-2-2-4-2———-4–|—4————–4—
Haye mera dil, haye mera dil.

Click Here 4  Haye Mera Dil Guitar TABS Riff 

First hold Bmin chord then strike string: 4,3,2,1,2,3,1,2, repeat it 3 times. Similarly for following
Gmaj: 5,4,3,1,2,3,1,2.
Gmaj: 6,5,4,3.
Amaj: 6,5,4,3.

B---------------5----5---------------------------------|
G-4-4-6--7-7-----------7-7-6-4---6-4---------------|
D------------------------------------------7-----------|
Line 1
Ro-2 ke arja guzaarda e dil

G-----4----6--6-4---4/7--6-6-4----------------------|
D--7----7----------------------------------------------|
Line 2
Haaye mera dil, Haaye mera dil

There is a guitar piece after 1st two lines. Let’s see it.

G-4---77-4---77-4------------------------------------|
D-------------------------------------------------------|
Lead line 1

B--5----------------------------------------------------|
G------7--6--------------------------------------------|
Lead line 2

B--5-7--------5----------------------------------------|
G---------7--------6--7--------------------------------|
Lead line 3

Now again start line 1 & 2 (till haaye mera dil)

B---------------55-------------------------------------|
G-444-6--77-------77--6-4---6-4--------------------|
D-------------------------------------7----------------|
Line 3
Jagg diya nazran to chori kite mil

G-----4----6--6-4---4/7--6-6-4----------------------|
D--7----7----------------------------------------------|
Line 4
Haaye mera dil, Haaye mera dil

Now again there is a guitar piece after first Para. Let’s see how to play it.

Lead Line 1 (play two times)
B------7--5-7----5-------------------------------------|
G--4-----------7----6-7--------------------------------|

Lead Line 2 (play two times)
B-----5-----5------------------------------------------|
G--------7-----6-7---4-6------------------------------|
D-7-----------------------------------------------------|

You can also play the 2nd lead line 2nd time like below:-

Lead Line 2 alternate (play only if you like the violin effect otherwise play lead line 2 two times).
B----5-----5---7-5-----5--7---------------------------|
G-------7------------7---------------------------------|
D-7-----------------------------------------------------|

Second Para.

B----------55555---------------------------------------|
G-44444-----------7-7--6-4—6/7—4/2---------------|
Line 5

B----------------------5--------------------------------|
G-444--------6-6-7------7--6-44----------------------|
D-------7--7-------------------------------------------|
Line 6

B-------555--7-5---------------------------------------|
G-444--------------77-6-4--6-4-----------------------|
D----------------------------------7--------------------|
Line 7

B----------------------5--------------------------------|
G-444--------6-6-7------7--6-44----------------------|
D-------7--7-------------------------------------------|
Line 8

B-----------55-----------------------------------------|
G-44444-----------------------------------------------|
D-------------------------------------------------------|
Line 9

B--7---------------------------------------------------|
G-----77---6/4--6-4----------------------------------|
D------------------------------------------------------|
Line 10

Now repeat from the beginning. Third Para is same as Second.

Disclaimer -
The Content of this Site is Copyrighted and Sole Property of their Respective Owners and Strictly used for the Educational, Entertainment or fair use only or to Provide Information to the Users. HERE You may allowed to republish contents with a valid backlink to the original source.

Post a Comment Blogger

 
Top