0


TheDeepak Presents

O O Jaane Jaana Guitar Tabs Leads, Hindi song the movie Pyaar Kiya To Darna Kya




PlayList 4 Video Song


Movie / Film / Album - Pyar Kiya Toh Darna Kya
Song - O O Jane Jana
Singer - Kamal Khan
Lyricist / Lyrics - Sameer
Music Composer / Director - Jatin-Lalit
Actor / Actress - KajolSalman Khan
-===============================-
Note - Listen song carefully and figure out the Suitable Tabs for respective song.
-===============================-

O O Jaane Jaana[TABS]

lead part :
E|--------------------------------------------------|
B|----------5--3-5-1------------3-3---0----0--------|
G|--2--2-2------------------------------2----2------|
D|-----------------------------------------------0--|
a a a e d e c, d d b a b a g

E|--------------------------------------------------|
B|------0-0-0--0-------------5---3-5--1-3--0-1------|
G|-0--0--------------2--2-2---------------------2---|
D|--------------------------------------------------|
g g b b b b, a a a e d e c d b c a
==================================

E|--------------------------------------------------|
B|--1--1-0----0-------------3-3----0-----0----------|
G|---------2----1--------------------2-----2--0-----|
D|--------------------------------------------------|
c c b a b c d d b a b a g
o o jaane jaana dhoonde tujhe deewaana

E|--------------------------------------------------|
B|----0-0-0-0--0-0-5--------5-5-0-1-1-0-------------|
G|-0------------------------------------2-----------|
D|--------------------------------------------------|
g b b b b b b e e e b c c b a
sapno mein roz aaye aa jindagi mein aana

==================================

E|----0---------------------------------------------|
B|------1-----3--0-------------0--1-----------------|
G|-2--------2---------0-0---2--------2--------------|
D|--------------------------------------------------|
a e c a d b g g a b c a
Mera khwab mere khayalon ki rani
g a b b a

E|----------0---------------------------------------|
B|------1-----3-3------------0--1-------------------|
G|-2--2--------------0-0--2--------2----------------|
D|--------------------------------------------------|
a a c e d d g g a b c a
Kisi din banegi hamari kahani

E|-0--0-2---2--0------------0---0-------------------|
B|---------------3----3---3--------3--1-------------|
G|--------------------------------------------------|
D|--------------------------------------------------|
e e f# f# e d d d e e d c
Ai mere bekhudi yeh kasam maine lee

E|--------------------------0-------0-----0-----------|
B|-0-----0----1----0---1-3--------3-----3---3--1--0---|
G|----2---------2-----------------------------------2-|
D|----------------------------------------------------|
b a b c a b c d e d e d e d c b a
pyaar mein ek din meri jaan tujhe hai paana


Click Here 4  O O Jaane Jaana Leads 

Another Version
E-----------------------------------------------------------------------
B-----------5-----5-----------------------------------------------------
G---------------7---5---------------------------------------------------
D--5s7--7-7-------------------------------------------------------------
A-----------------------------------------------------------------------
E-----------------------------------------------------------------------

E-----------------------------------------------------------------------
B-----------------------------------------------------------------------
G--5s7-7---4---4-------------------------------------------------------
D------------7---5s7--5--------------------------------------------------
A-----------------------------------------------------------------------
E-----------------------------------------------------------------------

E-----------------------------------------------------------------------
B-----------------------------------------------------------------------
G------4-4-4-4-4--------------------------------------------------------
D--4s5------------------------------------------------------------------
A-----------------------------------------------------------------------
E-----------------------------------------------------------------------

E-----------------------------------------------------------------------
B-----------5-----5-----------------------------------------------------
G---------------7---5h7--4h5--------------------------------------------
D--5s7--7-7------------------7------------------------------------------
A-----------------------------------------------------------------------
E-----------------------------------------------------------------------

Mukhda
E-----------------------------------------------------------------------
B-----------------------------------------------------------------------
G--4s5-5--4----4-5--------5s7-7---4---4---------------------------------
D-----------7-----------------------7---5s7-5---------------------------
A-----------------------------------------------------------------------
E-----------------------------------------------------------------------
  O O Jaane Jaana Dhoondhe Tujhe Deewana

E-----------------------------------------------------------------------
B------------------------5----------------------------------------------
G------4-4-4-4-7-----------7--5-7--4-5-4--------------------------------
D--3s5-----------------------------------7------------------------------
A-----------------------------------------------------------------------
E-----------------------------------------------------------------------
  Sapnoo Mein Roz Aaye Aa Zindagi Mein Aa Na

Antra
E-----------------------------------------------------------------------
B----5------------------------------------------------------------------
G------5-----7-4--------------4-5--4------------------------------------
D--7-----7-----------5-5--5-7--------7----------------------------------
A-----------------------------------------------------------------------
E-----------------------------------------------------------------------
  Mere Khaab Mere    Khayaloon Ki Rani

E-----------------------------------------------------------------------
B---------5-------------------------------------------------------------
G-------5---7-7------------------4-5--4---------------------------------
D--7--7----------------5-5--5-7---------7-------------------------------
A-----------------------------------------------------------------------
E-----------------------------------------------------------------------
  Kisi Din Banegi      Humari Kahani

[Repeat above]

E-----------------------------------------------------------------------
B--5-5-7--7-5----------5--5---------------------------------------------
G-------------7----7-7------7-5-----------------------------------------
D-----------------------------------------------------------------------
A-----------------------------------------------------------------------
E-----------------------------------------------------------------------
  Aye meri Bekhudii  Ye Kasam Maine Li

E-----------------------------------------------------------------------
B------------------------5----5----5------------------------------------
G--4---4---4---4---5-7-----7----7----7--5-4-----------------------------
D----7-------7------------------------------7---------------------------
A-----------------------------------------------------------------------
E-----------------------------------------------------------------------
Pyaar Mein Ek Din  Meri  Jaan Tujhe Hai Paana

And So On........

Disclaimer -
The Content of this Site is Copyrighted and Sole Property of their Respective Owners and Strictly used for the Educational, Entertainment or fair use only or to Provide Information to the Users. HERE You may allowed to republish contents with a valid backlink to the original source.

Post a Comment Blogger

 
Top