0


TheDeepak Presents

Pirates of the Caribbean Theme song intro notes Guitar Tabs Leads, English movie




PlayList 4 Video Song


Movie / Film / Album - Pirates Of The Caribbean
Song - Pirates Of The Caribbean Theme
Actor / Actress - Johnny Depp, Geoffrey Rush, Kevin McNally, Orlando Bloom (1-3), Keira Knightley (1-3), Jack Davenport (1-3), Lee Arenberg (1-3), Mackenzie Crook (1-3), Zoe Saldana (1), Bill Nighy (2-3), Naomie Harris (2-3), Chow Yun-Fat (3), Penélope Cruz (4), Ian McShane (4)
Music - Hans Zimmer, Klaus Badelt (1), Rodrigo y Gabriela (4), Eric Whitacre (4)
-===============================-
Note - Listen song carefully and figure out the Suitable Tabs for respective song.
-===============================-

Pirates Of The Caribbean Theme [TABS] 

G|—-5-7-7-7-9-10-10-10-12-9-9-7-5-7——
D|-7——————————————–7—–
This Part  2 Time


B|————–6-8-8-8-10-11-11-10-8-10—————-6-8-10-6-5-5-6-5—-
G|—5-7-7-7————————————7—7-7-7—————————–
D|-7———————————————————–


B|–10-10-10-11-10-8-8-8-8-10-10-10-10-11-10-8-6-5-3—


B|–3-5-6-8-10-8-6-5-6-8-10-8-6-8-10-8-6-5-6-5-3-1-3—-


e|———————————————1-5-6-3—————-
B|—3-5-6-5-6-8-6-8-10-8-6-3–3-3-3———–6-5-3-1-3—


B|–10-11-10-10-10-10-8-8-6-5-6-5-3-1-3——————–
This Part  2 Time

Click Here 4  MORE  


Pirates of the Caribbean theme song (single string)


e--2-5-7-7-7-9-10-10-10-12-9-9-7-5-5-7-

e--2-5-7-7-7-9-10-10-10-12-9-9-7-5-7-

e--2-5-7-7-7-9-12-12-12-14-15-15-14-12-14-7-

e--7-9-10-10-12-14-7-9-9-9-7-9-

e--2-5-7-7-7-9-10-10-10-12-9-9-7-5-5-7-

e--2-5-7-7-7-9-10-10-10-12-9-9-7-5-7-

e--2-5-7-7-7-9-12-12-12-14-15-15-14-12-14-7-

e--7-9-10-10-12-14-7-7-10-9-9-7-5-7-

e--7-9-10-10-12-14-15-3-2-2-7-7-10-10-

e--14-14-14-15-14--12-12-12-12-14-

e--14-14-14-15-14--12-10-9-7-

e--7-9-10-12-14-12-10-9-10-12-14-12-

e--10-12-14-12-10-9-7-9-5-7-

e--7-9-10-9-10-12-10-12-14-12-10-7-

e--7-9-10-12-14-7-

e--7-12-10-12-9-7-5-7-

e--14-15-14-14-14-14-12-12-10-9-10-9-7



Pirates of the Caribbean Theme (He's A Pirate)

this version played in following Video Link: http://www.youtube.com/watch?v=jvdQudeej4Q which Includes tabs, rhythm chords and Plucking.




Its a 2 guitar version. One used for leads and other used for chords.

e--------------------------------------------------|
B--------------------------------------------------|
G--------------------------------------------------|
D--------------------------------------------------|
A-5---5-5--5-5--5-5-5---5---5-5--5-5--5-5-5--------|
E--------------------------------------------------|

e--------------------------------------------------|
B--------------------------------------------------|
G---------------------------------------------7----|
D--------------------------------------------------|
A-5---5-5--5-5--5-5-5---5---5-5--5-5--5-5-5---5----|
E--------------------------------------------------|
        (You can try palm muting if u like)

Tabs including rhythm Chords:
e--------------------------------------------------|
B-------------5-6-6---6-8-5-5----------------------|
G---5-7-7---7-------------------7-5-5h7------------|
D-7------------------------------------------------|
A--------------------------------------------------|
E--------------------------------------------------|
     Dm        Bb        C        Dm

e--------------------------------------------------|
B-------------5-6-6---6-8-5-5----------------------|
G---5-7-7---7-------------------7-5-7~~------------|
D-7------------------------------------------------|
A--------------------------------------------------|
E--------------------------------------------------|
     Bb        F         C        Dm

e-----------------------5-6-6---5---5--------------|
B-------------6-8-8---8-----------8----------------|
G---5-7-7---7-------------------------7------------|
D-7------------------------------------------------|
A--------------------------------------------------|
E--------------------------------------------------|
     Dm        Gm        Am       Dm

e----------5-6-------------------------------------|
B---6-8-8------------6-5-5-------------------------|
G-7------------7---7---------7-5-5h7---------------|
D--------------------------------------------------|
A--------------------------------------------------|
E--------------------------------------------------|
     Bb       Dm         A7       A7

e--------------------------------------------------|
B-------------5-6-6---6-8-5-5----------------------|
G---5-7-7---7-------------------7-5-5h7------------|
D-7------------------------------------------------|
A--------------------------------------------------|
E--------------------------------------------------|
     Dm        Bb        C        Dm

e--------------------------------------------------|
B-------------5-6-6---6-8-5-5----------------------|
G---5-7-7---7-------------------7-5-7~~------------|
D-7------------------------------------------------|
A--------------------------------------------------|
E--------------------------------------------------|
     Bb        F         C        Dm

e-----------------------5-6-6---5---5--------------|
B-------------6-8-8---8-----------8----------------|
G---5-7-7---7-------------------------7------------|
D-7------------------------------------------------|
A--------------------------------------------------|
E--------------------------------------------------|
     Dm        Gm        Am       Dm

e----------5-6-------------------------------------|
B---6-8-8------------6-5-5-------------------------|
G-7------------7---7---------7-5-7-----------------|
D--------------------------------------------------|
A--------------------------------------------------|
E--------------------------------------------------|
     Bb       Dm         A7       Dm

e-------------------1------------------------------|
B---4/5-6-6-8--10\----3----------------------------|
G-7-----7-7-7---7\------2--------------------------|
D--------------------------------------------------|
A--------------------------------------------------|
E--------------------------------------------------|
     C   Bb    A     A

e-6------------------------------------------------|
B-6-6----------------------------------------------|
G-----7-----7-7-7-10-------------------------------|
D-------8---7-7-7--7-------------------------------|
A--------------------------------------------------|
E--------------------------------------------------|
    Gm      Am

e--------------------------------------------------|
B-10-10-10-11-10---8-8-8-8-10----------------------|
G-10-10-10---------9-9-9---------------------------|
D--------------------------------------------------|
A--------------------------------------------------|
E--------------------------------------------------|
     Dm     Dm     C    Dm

e--------------------------------------------------|
B-10-10-10-11-10---6/8-6-5-------------------------|
G-10-10-10---------7/9-7---7-----------------------|
D--------------------------------------------------|
A--------------------------------------------------|
E--------------------------------------------------|
     Dm     Dm     C    Dm

Plucking here.
I will use 2 bars here 1 for tab and 2nd for pluck
e--------------------------------------------------|
B--------8-10-8---------8-10-8---------------------|
G-7-9-10--------10-9-10----------------------------|
D--------------------------------------------------|
A--------------------------------------------------|
E--------------------------------------------------|
Pluck:
e--------------------------------------------------|
B-----3-----3-----1--------------------------------|
G---2-----2-----0-------2--------------------------|
D-0-----0-------------3----------------------------|
A-------------3------------------------------------|
E-------------------3------------------------------|

e--------------------------------------------------|
B----8-10-8----------------------------------------|
G-10--------10-9-10-9-7-9-5-7----------------------|
D--------------------------------------------------|
A--------------------------------------------------|
E--------------------------------------------------|
Pluck:
e--------------------------------------------------|
B-----------------3-----3--------------------------|
G-----0-----2---2-----2----------------------------|
D---2-----0---0-----0------------------------------|
A-3-----0------------------------------------------|
E--------------------------------------------------|

e--------------------------------------------------|
B-------------8----8-10-8--------------------------|
G-7-9-10-9-10---10--------10-7---------------------|
D--------------------------------------------------|
A--------------------------------------------------|
E--------------------------------------------------|
Pluck:
e--------------------------------------------------|
B-----3-----3-----1--------------------------------|
G---2-----2-----0-------2--------------------------|
D-0-----0-------------3----------------------------|
A-------------3------------------------------------|
E-------------------3------------------------------|

e--------------------------------------------------|
B--------8^-10-8--------8--------------------------|
G-7-9-10---------7-9-10---9-7-9-5------------------|
D--------------------------------------------------|
A--------------------------------------------------|
E--------------------------------------------------|
Pluck:
e--------------------------------------------------|
B--------------------------------------------------|
G-----3-----3-----5-----5--------------------------|
D---------5-----7-----7----------------------------|
A---5----------------------------------------------|
E-3-----3-----5-----5------------------------------|

Back to chords again from this point.
e--------------------------------------------------|
B-10-11--------------------------------------------|
G--7-10-14-14-14-14\12---12-10-9-10-9-7------------|
D-------15-15-15-15------12-10-7--7-7-7------------|
A--------------------------------------------------|
E--------------------------------------------------|
  Dm Bb C        F       Gm Am Am     Dm

e--------------------------------------------------|
B-10-11--------------------------------------------|
G--7-10-14-14-14-14\12---12-10-9-10-9-7------------|
D-------15-15-15-15------12-10-7--7-7-7------------|
A--------------------------------------------------|
E--------------------------------------------------|
  Dm Bb C        F       Gm Am Am     Dm

e-------------------------------------------------------|
B-------10-------11--------10-10-10-10\8----8-6-5-6-5---|
G-----10-------10-------10-10-10-10-10\8----9-7-7-----7-|
D---12-------12-------12--------------------------------|
A-12-------12-------12----------------------------------|
E-------------------------------------------------------|
        Dm       Bb        C        F       Gm Am Am  Dm

e-------------------------------------------------------|
B-------10-------11--------10-10-10-10\8----8-6-5-6-5---|
G-----10-------10-------10-10-10-10-10\8----9-7-7-----7-|
D---12-------12-------12--------------------------------|
A-12-------12-------12----------------------------------|
E-------------------------------------------------------|
        Dm       Bb        C        F       Gm Am Am  Dm


PIRATES OF THE CARIBBEAN THEME SONG TAB 

e-----------------------------------------------------------------------
B-----------------------------------------------------------------------
G----------------------------------------------------7------------------
D----------------------------------------------------x------------------
A-5---5-5---5-5---5-5-5-5---5---5-5---5-5---5-5-5-5--5---------
E-----------------------------------------------------------------------
  x   x x   x x   x x x x   x   x x   x x   x x x x

e-----------------------------------------------------------------------
B----------------5-6---6---6-8-5---5--------------------------------
G----5-7---7---7-----------------------7-5-5h7---------------------
D-/7--------------------------------------------------------------------
A-----------------------------------------------------------------------
E-----------------------------------------------------------------------


e-----------------------------------------------------------------------
B---------------5-6---6---6-8-5---5----------------------------------
G---5-7---7---7-----------------------7-5-7--------------------------
D-7---------------------------------------------------------------------
A-----------------------------------------------------------------------
E-----------------------------------------------------------------------


e---------------------------5-6---6---5-------5-------------------------
B---------------6-8---8---8---------------8----------------------------
G---5-7---7---7-----------------------------------7--------------------
D-7---------------------------------------------------------------------
A-----------------------------------------------------------------------
E-----------------------------------------------------------------------


e-----------------5-----------------------------------------------------
B---5-6---6---8---------------6-5---5---6---5-----------------------
G-7-----------------7-------7-------------7----------------------------
D-----------------------------------------------------------------------
A-----------------------------------------------------------------------
E-----------------------------------------------------------------------


e-----------------------------------------------------------------------
B---------------5-6---6---6-8-5---5----------------------------------
G---5-7---7---7-----------------------7-5-5h7-----------------------
D-7---------------------------------------------------------------------
A-----------------------------------------------------------------------
E-----------------------------------------------------------------------


e-----------------------------------------------------------------------
B---------------5-6---6---6-8-5---5----------------------------------
G---5-7---7---7-----------------------7-5-7--------------------------
D-7---------------------------------------------------------------------
A-----------------------------------------------------------------------
E-----------------------------------------------------------------------


e---------------------------5-6---6---5-------5-------------------------
B---------------6-8---8---8---------------8-----------------------------
G---5-7---7---7-----------------------------------7---------------------
D-7---------------------------------------------------------------------
A-----------------------------------------------------------------------
E-----------------------------------------------------------------------


e-----------------5-----------------------------------------------5\----
B---5-6---6---8---------------6-5---5--------------/5---6---6---8--
G-7-----------------7-------7-----------7-5-7---7--------------------
D-----------------------------------------------------------------------
A-----------------------------------------------------------------------
E-----------------------------------------------------------------------


e-1------------------6--------------------------------------------------
B---3------------------------6------------------------------------------
G-----2------------------------7-------------------------7------10-----
D--------------------------------8\--------------/7---------------------
A-----------------------------------------------------------------------
E-----------------------------------------------------------------------


e-----------------------------------------------------------------------
B-10---10---10---11-10.---------8---8---8---8-10.---------------
G-10---10---10------------------9---9---9--------------------------
D-----------------------------------------------------------------------
A-----------------------------------------------------------------------
E-----------------------------------------------------------------------


e-----------------------------------------------------------------------
B-10---10---10---11-10.---------6/8---6---------------------------
G-10---10---10------------------7/9---7---9---7-------------------
D-----------------------------------------------------------------------
A-----------------------------------------------------------------------
E-----------------------------------------------------------------------


e-----------------------------------------------------------------------
B----------8-10---8-----------------8---10---8----------------------
G-7-9-10--------------10---9---10----------------------------------
D-----------------------------------------------------------------------
A-----------------------------------------------------------------------
E-----------------------------------------------------------------------


e-----------------------------------------------------------------------
B----8-10---8h10p8--------------------------------------------------
G-10--------------10---9---10---9---7------9-5---7----------------
D-----------------------------------------------------------------------
A-----------------------------------------------------------------------
E-----------------------------------------------------------------------


e-----------------------------------------------------------------------
B-----------------8--------8---10---8---------------------------------
G-7-9-10---9-10-------10----------------10---7--------------------
D-----------------------------------------------------------------------
A-----------------------------------------------------------------------
E-----------------------------------------------------------------------


e-----------------------------------------------------------------------
B----------8---10---10/11-------8--------8--------------------------
G-7-9-10--------------------7-------10-----9---7---9-5------------
D-----------------------------------------------------------------------
A-----------------------------------------------------------------------
E-----------------------------------------------------------------------


e-----------------------------------------------------------------------
B-10~~--11~~--10---10---10---10-8~~-----8~~--6~~---5---6---5--
G-------------10---10------------------------7~~---5-----------7--------
D-----------------------------------------------------------------------
A-----------------------------------------------------------------------
E-----------------------------------------------------------------------


e-----------------------------------------------------------------------
B-10~~--11~~--10---10---10---10-8~~-----8~~--6~~---5---6---5---
G-------------10---10------------------------------------------7--------
D-----------------------------------------------------------------------
A-----------------------------------------------------------------------
E-----------------------------------------------------------------------


e---------------------------------------------------8-------------------
B--------10--------------11---------------10---10-------10-8-------
G---7-10------------7-10-------------7-10---------------------------
D-7---------------7----------------7-----------------------------------
A-----------------------------------------------------------------------
E-----------------------------------------------------------------------


e-----------------------------------------------------------------------
B-8~~---6~~---5---6---5--------------------------------------------
G-9~~---7~~---5-----------7----------------------------------------
D-----------------------------------------------------------------------
A-----------------------------------------------------------------------
E-----------------------------------------------------------------------


e---------------------------------------------------8-------------------
B--------10--------------11---------------10---10-------10-8-------
G---7-10------------7-10-------------7-10--------------------------
D-7---------------7----------------7----------------------------------
A-----------------------------------------------------------------------
E-----------------------------------------------------------------------

e-----------------------------------------------------------------------
B-8~~---6~~---5---6---5--------------------------------------------
G-9~~---7~~---5-----------7~~~~~~~~~~~~~~~~~~-----------
D-----------------------------------------------------------------------
A-----------------------------------------------------------------------
E-----------------------------------------------------------------------


========================================================================
Movie / Picture / Film - Pirates of the Caribbean
Director / Directed by - Gore Verbinski (1–3),Rob Marshall (4), Joachim Rønning & Espen Sandberg (5)
Producer / Produced by - Jerry Bruckheimer
Screenplay by - TheGuitar
Writter / Written by - Terry Rossio, Ted Elliott (1–4), Stuart Beattie (story, 1), Jay Wolpert (story, 1), Jeff Nathanson (5)
Story by - Based on - Walt Disney's Pirates of the Caribbean, Tim Powers' On Stranger Tides (4)
Cinematography by -
Editing by -
Studio - Walt Disney Studios, Motion Pictures
Distributed by - Walt Disney Pictures, Jerry Bruckheimer Films
Country - India
Language - Hindi
========================================================================

Disclaimer -
The Content of this Site is Copyrighted and Sole Property of their Respective Owners and Strictly used for the Educational, Entertainment or fair use only or to Provide Information to the Users. HERE You may allowed to republish contents with a valid backlink to the original source.

Post a Comment Blogger

 
Top