0

Get Free Updates in your Inbox
Follow us on:

The Deepak Presents

Popeye The Sailor Man Guitar Tabs Leads, English Theme Song from Cartoon Series




PlayList 4 Video Song


Popeye Theme Song [TABS]


G———————————————-0——————————-
D——0–0–0——–0–x–x–0–2——2—–2–0–x–x–0–2—–2—-
A—2———–3–2——————-3—————————-3——-


G—0——————————————————————-
D——4–2–0–2–0————0–2–0————-x–x–0–2————-
A————————2—–2————3–0———————3–3–3—-
E—————————3———————–3————————-


G———–0–0——————————————————————-
D—0–2———-0–0—————-0–0–2–2–2————0–0–0——-
A————————-0–0–2–3——————-0–2–3——————-
E——————————————————————————3—-


A—0–2–3–3–3——————————————————-
E——————–2–2–3———————————————-


Click Here 4  MORE  


Popeye The Sailor Man Intro Theme Song Tab

------------------------------------------------------------------------------|
-1--0--1--------------------1--1--3--2--3--------------------------------0----|
----------------0--------0-----------------------------------0--0--0--2-------|
-------------------3--2--------------------0--0--0--------0-------------------|
----------3--3--------------------------------------3--2----------------------|
------------------------------------------------------------------------------|


------------------------------------------------------------------------------|
-1--0-------------------------------------------------------------------------|
-------2--0--2--0-----------------------------------------------------0-------|
-------------------3--2--3--2--0-----0-----------------------0--2--3-----2----|
----------------------------------3-----3--2--0-----0--2--3-------------------|
-------------------------------------------------3----------------------------|


------------------------------------------------------------------------------|
------------------------------------------------------------------------------|
------------------------------------------------------------------------------|
------------------------------------------------------------------------------|
-3--3-------------------------------------------------------------------------|
------------------------------------------------------------------------------|


Popeye The Sailor Man Theme Song Bass Tabs

G------------------------------------------0----------------------------
D------0--0--0--------0--x--x--0--2-----2-----2--0--x--x--0--2-----2----
A---2-----------3--2-----------------3--------------------------3-------
E-----------------------------------------------------------------------
                                                                                                             
G---0-------------------------------------------------------------------
D------4--2--0--2--0-----------0--2--0-----------x--x--0--2-------------
A---------------------2-----2-----------3--0-----------------3--3--3----
E------------------------3--------------------3-------------------------
                                                                                                   
G---------0--0----------------------------------------------------------
D---0--2--------0--0--------------0--0--2--2--2-----------0--0--0-------
A---------------------0--0--2--3-----------------0--2--3----------------
E------------------------------------------------------------------3----
                                                                     
G-----------------------------------------------------------------------
D-----------------------------------------------------------------------
A---0--2--3--3--3-------------------------------------------------------
E------------------2--2--3----------------------------------------------

Disclaimer -
The Content of this Site is Copyrighted and Sole Property of their Respective Owners and Strictly used for the Educational, Entertainment or fair use only or to Provide Information to the Users. HERE You may allowed to republish contents with a valid backlink to the original source.

Post a Comment Blogger

 
Top