0

Get Free Updates in your Inbox
Follow us on:

TheDeepak Presents

Tik Tik Vajate Guitar Tabs Leads, Marathi song from the movie Duniyadari




PlayList 4 Video Song


Movie / Film / Album - Duniyadari
Song - Tik Tik Vajate
Singer - Sonu Nigam, Sayali Pankaj and Chorus
Lyricist / Lyrics -
Music Composer / Director - AmitRajPankaj Padghan, SAY Band
Actor / Actress - Swapnil Joshi, Ankush Choudhary, Jitendra Joshi, Sushant Shelar, Sandeep KulkarniUrmila Kanitkar, Sai Tamhankar, Richa Pariyalli
-===============================-
Note - Listen song carefully and figure out the Suitable Tabs for respective song.
-===============================-

टिक टिक वाजते डोक्यात [TABS] 

Capo on 4th fret

E --------0---------------------
B –-1--3-----3--1--1--1--1-3-1-0
Tik Tik Vajate Dokyat

E --------0------------------------
B –-1--3-----3--1--1--1--1-3-1---
G -----------------------------2--0
dhad dhad vadhate thokyat

E --0h3-3-3-----------0h3-3-3-----------
B –----------5slide3-----------5slide3--
Kabhi jami Kadhi Nabhi

E --0h3-3-5slide3-3------------
B –-----------------3-3-3-5-3-3
Sampate Antar Zokyat...


Music
E --8--7--5--0---8--7--5--0---8--7--5--0-----5--10--12--13--10
B ----------------------------------------6-------------------

E --13--12--10------13--12--10------13--12--10--8--7--5--1--0--0
B --------------10--------------10------------------------------


E --0--8--7--5----7--8--7--10slide8-7slide5
B -----------------------------------------
Nahi jari Sari tari

E --0--8--7--5--5-------------
B ---------------6--6--8--6--5
bhijat anga Panyane

E --0--8--7--5----0--0--8--7slide8--5slide7slide5
B -----------------------------------------------
Sochu tumhe Pal bhar bhi

E --0--8--7--5--5-------------
B ---------------6--6--8--6--5
Barase savan Jomane

E --0h3-3-3-----------0h3-3-3-----------
B –----------5slide3-----------5slide3--
shimpalyanche Showpiece nako

E --0h3-3-3----------------------
B –----------5slide3--3-3-3-5-3-3
Jiv adakala motyat...

remaining chords are same as above


Click Here 4  Tik Tik Vajate Dokyat Chords + Strumming Pattern  

Disclaimer -
The Content of this Site is Copyrighted and Sole Property of their Respective Owners and Strictly used for the Educational, Entertainment or fair use only or to Provide Information to the Users. HERE You may allowed to republish contents with a valid backlink to the original source.

Post a Comment Blogger

 
Top