0

Get Free Updates in your Inbox
Follow us on:

TheDeepak Presents

Aag Ka Dariya Unplugged Guitar Tabs Leads, Hindi song from the movie ISSAQ

TheDeepak.com
TheDeepak.com


Movie / Film / Album - ISSAQ
Song - Aag Ka Dariya
Singer - Ankit Tiwari
Lyricist / Lyrics - Neelesh Misra
Music Composer / Director - Sachin-Jigar
Actor / Actress - Prateik Babbar, Amyra Dastur
-===============================-
Note - Listen song carefully and figure out the Suitable Tabs for respective song.
-===============================-

Aag Ka Dariya [TABS]

G|---------------------------------------------------|
D|-777-10-999-10-9-777------------------------|
Behak Jaaye Dil Toh Sambhalta Nahi

G|---------------------7------------------------------|
D|-777-10-999-10-------10-99-------------------|
Sambhal Jaaye To Samjhta Nahi

G|-9-7-9-9-7-99-7-9------------------------------|
D|---------------------------------------------------|
Kehta Hai Jo Hota Hai Ho…

B|-----------8----------------------------------------|
G|--9-7-9------9------------------------------------|
Tujhe Paana Hai…

G|----------------------------777-9-7-------7---------|
D|--999-10-10-9-10-10-9-------------10-----10-9--|
Yeh Ik Pal Mein Hassata Hai Pal Mein Rulaata Hai…….

G|----------------------------77777-9-10-9-7--------|
D|--999-10-10-9-10-10-9----------------------------|
Ik Pal Mein Hassata Hai Pal Mein Rulaata Hai……

G|----------------------------777-9-7-------7---------|
D|--999-10-10-9-10-10-9-------------10-----10-9-|
Yeh Ik Pal Mein Hassata Hai Pal Mein Rulaata Hai…….

G|----------------------------77777-9-10-9-7---------|
D|--999-10-10-9-10-10-9----------------------------|
Yeh Aag Ka Dariya Hai Doob Ke Jaana Haiiiiiii

G|--------4--------------------4-----------------------|
D|--3-5------3-5-3-----3-5-------3-5-3-------------|  (play 4 times)
Isaq Tera

G|---------------------------------7------------------|
D|--10-10-9-10-10-9--7-9-10------10-----------|
Rang Se Tere Juda Ho Ke

G|-------9-9-7----------------------------------------|
D|--10----------10-9-9--777------------------------|
Berang Hi Mujhko Rehna Hai

G|-------------------------------------7--------------|
D|--10-9-10-9-10-9-10-9-7-9-10-------10------|
Pal Pal Pal Chin Manwa Re

G|------99-7-------------------------------------------|
D|-10---------10-9-9-777----------------------------|
Kahe Ke Kuch Na Kehna Hai

G|---------------------------------7-------------------|
D|--10-10-9-10-10-9--7-9-10------10-------------|
Rang Se Tere Juda Ho Ke

G|-------9-9-7-----------------------------------------|
D|--10----------10-9-9--777-------------------------|
Berang Hi Mujhko Rehna Hai

G|-------------------------------------7----------------|
D|--10-9-10-9-10-9-10-9-7-9-10-------10---------|
Pal Pal Pal Chin Manwa Re

G|------99-7-------------------------------------------|
D|-10---------10-9-9-777----------------------------|
Kahe Ke Kuch Na Kehna Hai

B|------------------------8-----------------------------|
G|-9-7-9-9-7-9-7-9-9-------9------------------------|
Tukdon Tukdon Mein Jee Main Raha

B|------------------------8---------------------------|
G|-9-7-9-9-7-9-7-9-9-------9---------------------|
Tukdon Tukdon Mein Jee Main Raha

B|----------------------------8----------------------|
G|--9-7-9--9-7-9-9-7-9-9------9-----------------|
Ab Poora Na Ho Paaunga Main Jahaan

G|--9-7-9-9-7--------------------------------------|
D|---------------10-9-7-999-----------------------|
Hoga Jo Ho Tujhe Paana Hai

G|----------------------------777-9-7-------7---------|
D|--999-10-10-9-10-10-9-------------10-----10-9---|
Yeh Ik Pal Mein Hassata Hai Pal Mein Rulaata Hai…….

G|----------------------------77777-9-10-9-7-------|
D|--999-10-10-9-10-10-9---------------------------|
Ik Pal Mein Hassata Hai Pal Mein Rulaata Hai……

G|----------------------------777-9-7-------7---------|
D|--999-10-10-9-10-10-9-------------10-----10-9---|

Yeh Ik Pal Mein Hassata Hai Pal Mein Rulaata Hai…….
G|----------------------------77777-9-10-9-7-------|
D|--999-10-10-9-10-10-9---------------------------|
Yeh Aag Ka Dariya Hai Doob Ke Jaana Haiiiiiii

G|--------4--------------------4-----------------------|
D|--3-5------3-5-3-----3-5-------3-5-3-------------|  (play 4 times)
Isaq Tera

Click Here 4  MORE Guitar Tabs Leads Tutorials 

Disclaimer -
The Content of this Site is Copyrighted and Sole Property of their Respective Owners and Strictly used for the Educational, Entertainment or fair use only or to Provide Information to the Users. HERE You may allowed to republish contents with a valid backlink to the original source.

Post a Comment Blogger

 
Top