0


TheDeepak Presents

Ankahee Guitar Tabs Leads, Hindi song from the movie Lootera




PlayList 4 Video Song


Movie / Film / Album - Lootera
Song - Ankahee
Singer - Shilpa Rao
Lyricist / Lyrics - Amitabh Bhattacharya
Music Composer / Director - Amit Trivedi
Actor / Actress - Ranveer Singh, Sonakshi Sinha
-===============================-
Note - Listen song carefully and figure out the Suitable Tabs for respective song.
-===============================-

Ankahee [TABS] 

B|----2----2---------------------------------------------|
G|-2----4----1-2-1-------------------------------------|
D|-------------------2-----------------------------------|
Kya Kabhi Sawera,, haan haan

B|----2----2---------------------------------------------|
G|-2----4----1-2-1-------------------------------------|
D|-------------------2-----------------------------------|
Laata Hai Andhera,,, haan haan

G|-------------4-6-4------------------------------------|
D|-4-2-0-2-4-------------------------------------------|
Sookhi Syaahi

G|-------------4-6-4------------------------------------|
D|-4-2-0-2-4-------------------------------------------|
Deti Hai Gawahi

G|-4-3-4-6-3-4-----4-3-4-6-3-4/7-------------------|
Sadiyon puraani aisi ek kahaani

G|--7777--2-4-2-1-------------------------------------|
Reh Gayi Reh Gayi

B|---------2-0-------------------------------------------|
G|---1-2-------2----------------------------------------|
D|-2-----------------------------------------------------|
Ankahee……  x2 times

G|----44---4-2-2--777--2-4-1-------------------------|
D|--4----4-----------------------------------------------|
Kya kabhi bahaar bhi, Peshgi laati hai

G|---111--2-4-6----------------------------------------|
D|-2-----------------------------------------------------|
Aane wale patjhad ki

G|----44---4-2-2--777--2-4-1------------------------|
D|--4----4-----------------------------------------------|
Baarishein narazgi bhi jata jaati hain

G|---111--2-4-6---------------------------------------|
D|-2-----------------------------------------------------|
Kabhi kabhi ambar ki..

G|--4------2---------------------------------------------|
D|-----4-4----2-2--0-4---------------------------------|
Patte jo shakhon se toote

G|--4-----2------2-2-1--------2-4-4/6-----------------|
D|-----44----22------------------------------------------|
Bewajah to nahin roothe,, Hain sabhi

B|----2----2---------------------------------------------|
G|-2----4----1-2-1-------------------------------------|
D|-------------------2-----------------------------------|
Khwabon ka Jhrokha,, haan haan

B|----2----2---------------------------------------------|
G|-2----4----1-2-1-------------------------------------|
D|-------------------2-----------------------------------|
Sach tha ja dhokha,,, haan haan

G|-------------4-6-4--------------------------------------|
D|-4-2-0-2-4---------------------------------------------|
Maatha sehrake

G|-------------4-6-4--------------------------------------|
D|-4-2-0-2-4---------------------------------------------|
Neendiya churaai

G|-4-3-4-6-3-4-----4-3-4-6-3-4/7---------------------|
Sadiyon puraani aisi ek kahaani

G|--7777--2-4-2-1-------------------------------------|
Reh Gayi Reh Gayi

B|---------2-0-------------------------------------------|
G|---1-2-------2----------------------------------------|
D|-2-----------------------------------------------------|
Ankahee……  x2 times

Click Here 4  Sawaar Loon Guitar Tabs Leads Tutorial  

Disclaimer -
The Content of this Site is Copyrighted and Sole Property of their Respective Owners and Strictly used for the Educational, Entertainment or fair use only or to Provide Information to the Users. HERE You may allowed to republish contents with a valid backlink to the original source.

Post a Comment Blogger

 
Top