0


TheDeepak Presents

BACHANA Guitar Tabs Leads, Hindi song sung by BILAL KHAN from Pakistan




PlayList 4 Video Song


Movie / Film / Album - Umeed
Song - Bachaana
Singer - Bilal Khan
Lyricist / Lyrics - BILAL KHAN
-===============================-
Note - Listen song carefully and figure out the Suitable Tabs for respective song.
-===============================-

Bachaana [TABS]

e|-------------------------------------|
B|---------------2-3-5-5-3-2------|
G|-----4-2-4--------------------|
Tanhai ke Safar mein

e|------------------------------------------------|
B|------------------------2-3-5-5-3-2------|
G|-------------------4-----------------------|
Chalna Sabar se

e|---------------------------------------------------|
B|------------------------2-3-5-5-3-2------|
G|-------------------4----------------------------|
Koi na Nazar mein haan

e|---------------------------------------------------|
B|------------------------2-3-5-5-3-2------|
G|---------------4-2-4----------------------------| Start From G
Jab Khaaab mein Soo jaein

e|------------------------------------2-------------|
B|------------------------2-3-5-5----5-5-3-2---|
G|-------------------4------------------------------| Start from G
Sochon Ko Neebha na Paein

e|---------------------------------------------------|
B|------------------------2---3---5--5--3--2------|
G|-------------------4----------------------------| Start From G
Din Woh yaad aein na...

Repeat it 2 times. ....
e|----------------2-2------2-----------------!
B|----------------------5--------------------!
G|------------3--------------------------!Start from G
Khata ho gaey! Saza ho gai .......

e|-------------------------2-----------------|
B|---------------2-3-5-5----3-2----2---|
G|-----5--5----------------------4--------| Start from G
Purane Din yaad aein na ...

e|--------------------------------------------2-----------------------------|
B|--2--3--5-3--2--2---5--3---2---2---5--3----2--------2------------|
G|--4---2---4-----------------------4------4-----------------4------------------4-------|
Dunya k is Shoor mein Seekha hai Mar k Hoti Zindagi kia ...

2 Times ....
e|------------2---------2-------------------------|
B|---------------3-5-------3-5------------------|
G|-------4--------------------------------------------|
Mein Doob Rha...Doob Rha....

e|--------------------------------------------------|
B|----------------------3---2---------------------|
G|-----4--2--4--4--4---------2---4---------------|
BACHANA MUJHE BACHANA.....

Click Here 4  MORE Songs 

Disclaimer -
The Content of this Site is Copyrighted and Sole Property of their Respective Owners and Strictly used for the Educational, Entertainment or fair use only or to Provide Information to the Users. HERE You may allowed to republish contents with a valid backlink to the original source.

Post a Comment Blogger

 
Top