0

Get Free Updates in your Inbox
Follow us on:

TheDeepak Presents

BANJAREY Guitar Chords + Strumming Pattern, Hindi song sung by Yo Yo Honey Singh from the movie FUGLY

TheDeepak.com
TheDeepak.com


Movie / Film / Album - Fugly
Song - Banjarey
Singer - Yo Yo Honey Singh
Lyricist / Lyrics - Yo Yo Honey Singh
Music Composer / Director - Honey Singh
Actor / Actress - Vijender Singh, Mohit Marwah, Kiara Advani, Arfi Lamba
-============================-
Note - Listen song carefully and figure out the Suitable Strumming Pattern / Chords for respective song. where,
D = Down Stroke Strum and U = Up Stroke Strum
Dm / D* / dm / small d = Muted Chuck Down Stroke Strum
Um / U* / um / small u = Muted Chuck Up Stroke Strum
-============================-

Banjarey [CHORDS] 
[Strumming Pattern: D D UDUDD or DD UDU DD]

Intro :  (E)    (Asus2)    (A)    (B)

 (E)        (Asus2)
Ghoome ghoome banjarey
 (A)              (B)
Ghoome galiyaan yeh bechare
 (E)        (Asus2)
Don't know which way to go
 (A)          (B)
Aage hoga kya?

 (E)          (Asus2)
Bin pooche ghar se bhaage
 (A)              (B)
Thode soye thode jaage
 (E)           (Asus2)
Baahar hai duniya zaalim
 (A)              (B)
Rab hi jaane jo hoga aage

 (E)              (Asus2)
Sach bolo toh munh ki khaate
 (A)              (B)
Jhooti duniya jhoote saare
 (E)           (Asus2)
Don’t know which way to go
 (A)              (B)
Aage hoga kya ?


 (E)        (Asus2)
Ghoome ghoome banjarey
 (A)              (B)
Ghoome galiyaan yeh bechare
 (E)        (Asus2)
Don't know which way to go
 (A)          (B)
Aage hoga kya?

 (E)        (Asus2)
Befikre chaar malangi
 (A)              (B)
Chhod ke aaye saathi sangi
 (E)             (Asus2)
Ghar baithe show-sha mein kharche
 (A)              (B)
Ho gayi saali jeb ki tangi

 (E)          (Asus2)
Chalti baazi naach nachaye
 (A)              (B)
Ab toh humko Rab hi bachaye
 (E)        (Asus2)
Don’t know which way to go
 (A)              (B)
Aage hoga kya?

 (E)        (Asus2)
Ghoome ghoome banjarey
 (A)              (B)
Ghoome galiyaan yeh bechare
 (E)        (Asus2)
Don't know which way to go
 (A)          (B)
Aage hoga kya?

 (E)        (Asus2)
Ho gayi jab haalat kadki
 (A)              (B)
Yaad aane lagi phir ghar ki
 (E)        (Asus2)
Botal ka dhakkan khola
 (A)              (B)
Kasar mita di zindagi bhar ki

 (E)              (Asus2)
Ho ruk gaye aansu, ban gaye pathhar
 (A)              (B)
Jeena nahi hai ab mar-mar kar
 (E)          (Asus2)            (A)           (B)
Don't know which way to go, aage hoga kya?

 (E)        (Asus2)
Ghoome ghoome banjarey
 (A)              (B)
Ghoome galiyaan yeh bechare
 (E)        (Asus2)
Don't know which way to go
 (A)          (B)
Aage hoga kya?

Click Here 4  Banjarey Guitar CHORDS + STRUMMING | Fugly  

(E) (Asus2) (B) (A)

[E] Ghoome ghoome banja[Asus2]rey
[B] Ghoome galiyaan yeh be[A]chare
[E] Don’t know which way [Asus2] to go
[B] Aage hoga kya? [A]

SOLO TAB LEAD

e----------------------------------------9-------------
b---12--10--9---------------12------------12-------
g-------------------11--9-----------------------------
D------------------------------------------------------
A------------------------------------------------------
E------------------------------------------------------

e------------------------------9--11--9--------------
b---12--10--9----------9----------------------------
g-------------------11--------------------------------
D------------------------------------------------------
A------------------------------------------------------
E------------------------------------------------------

e--11--12--14--11--12-----14--16--17--14--16--  x2 Times
b-------------------------------------------------------
g-------------------------------------------------------
D-------------------------------------------------------
A-------------------------------------------------------
E-------------------------------------------------------

[E] Bin pooche ghar se [Asus2] bhaage
[B] Thode soye thode ja[A]age
[E] Baahar hai duniya zaa[Asus2]lim
[B] Rab hi jaane jo ho[A]ga aage

[E] Sach bolo toh munh ki [Asus2] khaate
[B] Jhooti duniya jhoo[A]te saare
[E] Don’t know which way [Asus2] to go
[B] Aage hoga kya ? [A]

[E] Ghoome ghoome banja[Asus2]rey
[B] Ghoome galiyaan yeh be[A]chare
[E] Don’t know which way [Asus2] to go
[B] Aage hoga kya? [A]

e--14-12--12-12-12---14-12------------------
B--------------------------14--14--14-12-12-
this above tab is played from start to the end of the solo in the background.

e-----------------------------------
b----------------------9--9---------
g------------9-9--9-11------11-9-11-
D-------9-11------------------------
A--9-11-----------------------------
E-----------------------------------

e---------7--7h9-7---7-9--7-----
b-------9-------------------9-7-
g--9-11-------------------------
D-------------------------------
A-------------------------------
E-------------------------------

e------7---7-------7---7--------7-
b--7h9---7-----7h9---7------7h9---

[E] Befikre chaar mala[Asus2]ngi
[B] Chhod ke aaye saat[A]hi sangi
[E] Ghar baithe show-sha [Asus2] mein kharche
[B] Ho gayi saali jeb [A] ki tangi

[E] Chalti baazi naach [Asus2] nachaye
[B] Ab toh humko Rab hi [A] bachaye
[E] Don’t know which way [Asus2] to go
[B] Aage hoga kya? [A]

[E] Ghoome ghoome banja[Asus2]rey
[B] Ghoome galiyaan yeh be[A]chare
[E] Don’t know which way [Asus2] to go
[B] Aage hoga kya? [A]

[E] Ho gayi jab haalat [Asus2] kadki
[B] Yaad aane lagi phir [A] ghar ki
[E] Botal ka dhakkan kho[Asus2]la
[B] Kasar mita di zind[A]agi bhar ki

[E] Ho ruk gaye aansu, ban [Asus2] gaye pathhar
[B] Jeena nahi hai ab [A] mar-mar kar
[E] Don’t know which way [Asus2] to go, aage hoga [B] kya? [A]

[E] Ghoome ghoome banja[Asus2]rey
[B] Ghoome galiyaan yeh be[A]chare
[E] Don’t know which way [Asus2] to go
[B] Aage hoga kya? [A] …

Disclaimer -
The Content of this Site is Copyrighted and Sole Property of their Respective Owners and Strictly used for the Educational, Entertainment or fair use only or to Provide Information to the Users. HERE You may allowed to republish contents with a valid backlink to the original source.

Post a Comment Blogger

 
Top