0

Get Free Updates in your Inbox
Follow us on:

TheDeepak Presents

Chura Liya Guitar Tabs Leads, Hindi Old is Gold song from the movie Yaadon Ki Baraat




PlayList 4 Video Song


Movie / Film / Album - Yaadon Ki Baraat
Song - Chura Liya Hai Tumne Jo Dil Ko
Singer - Mohammad Rafi, Asha Bhosle
Lyricist / Lyrics - Majrooh Sultanpuri
Music Composer / Director - Rahul Dev Burman
Actor / Actress - Dharmendra, Zeenat Aman
-===============================-
Note - Listen song carefully and figure out the Suitable Tabs for respective song.
-===============================-

Chura Liya Hai Tumne Jo Dil Ko [TABS] 

E|--5--5-5---5--5-5---5--5-5---5--5-5---0-------0---
B|--------------------------------------1--[0]--1-[0]--
G|--------------------------------------2-------2------
D|--------------------------------------2-------2------
A|--------------------------------------0-------0------
E|-----------------------------------------------------
a a a a a a a a a a a a Am Am

E|------------------------------------------------------
B|---------------1-0--------------1-0------------------
G|------2------------2---2------------2----------------
D|--2----------2-------2--------2---------3------------
A|--------------------------------------3---------------
E|------------------------------------------------------
e a e c b a e a e c b a c f

E|---------------------------------------0--------------
B|-----0-------------------0-----------0---0------------
G|--------2------2-----------2-1----1--------1-----2---
D|-----------3-0-------2-0--------2--------------2------
A|--3---------------------------------------------------
c b a f d a e d b a g# e g# b e b g# e a

E|------------------------------------------------------
B|---------1--0---------0-------------------------------
G|--2--2---------2---2------2--0------------------------
D|---------------------------------0--------------------
a a c b a a b a g d
Chura liya hai tumne jo dil ko

E|----------------------------------------------------
B|--------1--0----------0-------------------------------
G|--2--2---------2---2-----2--1------------------------
D|----------------------------------------------------
a a c b a a b a g#
Nazar nahin churaana sanam

Next two lines ... same as bove
Badalke meri tum zindagaani
Kahin badal na jaana sanam

E|------------------------------------------------------
B|--3---3--3-3/5-3-0-------3--3--3\5--3-0---------------
G|------------------------------------------------------
d, d d de d b d d d e d b
Oh, le liya dil, haai mera dil

E|------------------------------------------------------
B|--2-----2--0------2---0-----2--0----------------------
G|---------------2---------2-------2----2-2-------------
D|------------------------------------------------------
c# c# b a c# b a c# b a a a
Haai dil lekar mujhko na behlaana

Chura liya hai tumne jo dil ko
Nazar nahin churaana sanam
Badalke meri tum zindagaani
Kahin badal na jaana sanam

E|------------------------------------------------------
B|----0--1-3-3-3--5--3---1--0---------------------------
G|--2--------------------------2-0--1---1--1---1--------
D|------------------------------------------------------
a b c d d d e d c b a b c c c c
Bahaar banke aaoon kabhi tumhaari duniya mein

E|------------------------------------------------------
B|----0--1--3-3-3-5---3---1---0---1---------------------
G|-2----------------------------2---2-2---2-2-----------
D|------------------------------------------------------
a b c d d d e d c b a c a a a a
Guzar na jaaye yeh din kahin isi tamanna mein

Tum mere ho, ho tum mere ho
Aaj tum itna vaada karte jaana
Chura liya

The melody in between..
E|------0----------------------------------------------
B|------------------------0----------------------------
G|---2-----2--2--2--2--2-----2--0----------------------
D|-----------------------------------------------------
a e a a a a a b a g

E|-----------------------------------------------------
B|------3--------------0--1----------------------------
G|---0-----0--0--0--0--------2-------------------------
D|-----------------------------------------------------
g d g g g g b c a

Chura liya hai tumne jo dil ko
Nazar nahin churaana sanam
Badalke meri tum zindagaani
Kahin badal na jaana sanam

Click Here 4  Chura Liya Hai Chords + Strumming Pattern  

Disclaimer -
The Content of this Site is Copyrighted and Sole Property of their Respective Owners and Strictly used for the Educational, Entertainment or fair use only or to Provide Information to the Users. HERE You may allowed to republish contents with a valid backlink to the original source.

Post a Comment Blogger

 
Top