0


TheDeepak Presents

Ishq Wala Love Guitar  Tabs Leads, Hindi song from the movie Student of the Year

TheDeepak.com
TheDeepak.com


Movie / Film / Album - Student of the Year
Song - Ishq Wala Love
Singer - Salim MerchantShekhar Ravjiani, Neeti Mohan
Lyricist / Lyrics - Anvita Dutt
Music Composer / Director - Vishal-Shekhar
Actor / Actress - Siddharth Malhotra, Alia Bhatt, Varun Dhawan, Rishi Kapoor
-============================-
Note - Listen song carefully and figure out the Suitable Tabs for respective song.
-============================-

Ishq Wala Love [TABS] 

B———4-6-2-
G-3\5-5——-
STARTING MELODY

B-4-3-1——3-1——–1———–
G——–3———3-1—–3-1-0—
D————————————3-
Surkh wala, sauz wala, Faiz wala love

B-4-3-1—–3-1——–1————
G——–3——–3-1——3-1-0—
D————————————3-
Hota hai jo love se jyada waise wala love

D-1-1-3-3-3\5—
Ishq wala love

G-3——————–3——————
D—3-3-3-3-3-1-3—–3-3-3-3-3-1-3-
Hua jo dard bhi toh humko aaj kuch zyada hua

D-1-1-3-3-3\5—
Ishq wala love

G-3——————–3——————
D—3-3-3-3-3-1-3—–3-3-3-3-3-1-3-
Ye kya hua hai kya khabar yehi pata hai zyada hua

D-1-1-3-3-3\5—
Ishq wala love

G-3——————–3——————
D—3-3-3-3-3-1-3—–3-3-3-3-3-1-3-
Agar ye usko bhi hua hai phir bhi mujhko zyada hua

D-1-1-3-3-3\5—
Ishq wala love

E——–1—————————
B-1-3-4—4-3-4-3-1—-1—3—–
G————————3——–3–
Meri neend jaise pehli baar tooti hai

E———1—————————–
B-1-3-4—4-3-4-3-1—-1h3–1h3–
G————————3————–
Aankhein band kar ke dekhi hai maine subah

E——–1————————————–
B-1-3-4—4-3-4-3-1—-1—3—————
G————————3———3—3-3-1–
Hui dhoop zyada leke teri roshni din chadha

D-1-1-3-3-3\5—
Ishq wala love

E——–1—————————
B-1-3-4—4-3-4-3-1—-1—3—
G————————3——–3–
Jhanke badalon ki jaali ke peechhe se

E———1—————————–
B-1-3-4—4-3-4-3-1—-1h3–1h3–
G————————3————–
Kare chandani ye mujhko ittala

E——–1————————————————
B-1-3-4—4-3-4-3-1—-1—3————–1-1-4-4–
G————————3——-3—-3-3-1————–
Leke noor sara chand mera yahin pe hai chhupa chhupa hua

D-1-1-3-3-3\5—
Ishq wala love

G-3——————–3——————
D—3-3-3-3-3-1-3—–3-3-3-3-3-1-3-
Hua jo dard bhi toh humko aaj kuch zyada hua

D-1-1-3-3-3\5—
Ishq wala love

G-3——————–3——————
D—3-3-3-3-3-1-3—–3-3-3-3-3-1-3-
Ye kya hua hai kya khabar yehi pata hai zyada hua

D-1-1-3-3-3\5—
Ishq wala love

G-3——————–3——————
D—3-3-3-3-3-1-3—–3-3-3-3-3-1-3-
Agar ye usko bhi hua hai phir bhi mujhko zyada hua

D-1-1-3-3-3\5—
Ishq wala love

Click Here 4  Ishq wala love CHORDS STRUMMING - SOTY 

Ishq Wala Love | SOTY on Acoustic as well as on Electric Guitar

Starting Leads
Line 1
B|---------4-6----------|
G|-3/5-5-------3--------|

Line 2
B|-----------4--6----------|
G|-3/5--5----------5/3-----|

Repeat Above Line 1 & Line 2 for Two Time. You can also repeat the 1st line 4 times.

Line 1
G|-8-7-5---------7-5------------|
D|---------8------------8--6----|

Line 2
G|-5--------------------|
D|-----8--6--5----------|
A|-----------------8-----

Line 3
G|-8-7-5---------7-5------------|
D|---------8------------8--6----|

Line 4
G|-5---------------------------|
D|-----8--6--5-----------------|
A|-----------------8-----------|

Line 5
D|---------6—3/5---------------|
A|-8-6-8-----------------------|

Line 6
D|-88-----------------8-----------------|
A|-----888-88--6-8-------888--88--6-8---|

Line 7
D|---------6—3/5-------|
A|-8-6-8---------------|

Line 8
D|-88-----------------8------------------|
A|-----888-88--6-8-------888--88--6-8----|

Line 9
D|---------6—3/5-------|
A|-8-6-8---------------|

Line 10
D|-88-----------------8-----------------|
A|-----888-88--6-8-------888--88--6-8---|

Line 11
D|-----------5------------|
A|--8-6-8--------6/3------|

Line 12
B|----------6------------------------------|
G|-5-7-8------8-7-8-7-5------5-7-----------|
D|---------------------------8---------8---|

Line 13
B|---------6----------------------|
G|-5-7-8-----8-7-8-7-5--------7---|
D|--------------------------8-----|

Line 14
B|---------6--------------------------------------|
G|-5-7-8-----8-7-8-7-5-------5-7------------------|
D|--------------------------8---------8-8-8-8/6---|

Line 15
D|-3-5-3------3-------|
A|----------6---------|

Line 16
B|----------6------------------------------|
G|-5-7-8------8-7-8-7-5------5-7-----------|
D|---------------------------8---------8---|

Line 17
B|---------6----------------------|
G|-5-7-8-----8-7-8-7-5--------7---|
D|--------------------------8-----|

Line 18
B|---------6-------------------------------|
G|-5-7-8-----8-7--8-7-5-------5-7----------|
D|---------------------------8---------8---|

Line 19
G|----------------------8-7---|
D|-8-8-8/6--10-10-------------|

Line 20
D|---------6—3/5--------|
A|-8-6-8----------------|

Line 21
D|-88-----------------8-----------------|
A|-----888-88--6-8-------888--88--6-8---|

Line 22
D|---------6—3/5-----|
A|-8-6-8-------------|

Line 23
D|-88-----------------8-----------------|
A|-----888-88--6-8-------888--88--6-8---|

Line 24
D|---------6—3/5-------|
A|-8-6-8---------------|

Line 25
D|-88-----------------8----------------|
A|-----888-88--6-8-------888--88--6-8--|

Line 26
D|-----------5----------|
A|--8-6-8--------6/3----|


NOW START SECOND PARA

Line 27
B|------------8--------|
G|-3/7--8--------10-8--|

Line 28
G|-5-8-5-----------5-8-5--------|
D|----------6----------------7--|

Line 29
G|-------7-5-------|
D|-7/8--------8----|

Line 30
B|-----------8----------|
G|-----7-8-------10-8---|
D|--8-------------------|

Line 31
G|-5-8-5-----------5-8-5---------|
D|----------6----------------7---|

Line 32
G|-------7-5---------|
D|-7/8--------8------|

Line 33
B|---------------6--------------------|
G|-5-5-5-7-8-------7-7-7---------5----|
D|----------------------------8-8-----|

Line 34
B|---------------6--------------------|
G|-5-5-5-7-8-------7-7-7---------5----|
D|----------------------------8-8-----|

Line 35
B|---------------6------------|
G|-5-5-5-7-8-------7-7-7------|
D|----------------------------|

Line 36
D|-6-5-6-8—8/10-----|
A|------------------|

Line 37
D|--10-8-10-8-10/12------|
A|-----------------------|

Line 38
B|---------------------------6---------------|
G|-10-10-55-555------5------555-55-------5---|
D|-------------------8--------------------8--|

Line 39
G|-5-3-5-3—5/7-------|
D|-------------------|

Line 40
G|-3-3-----------------3--------------|
D|------333-3-1-1-3------333-33-1-3---|

Line 41
D|---------6—3/5-----|
A|-8-6-8-------------|

Line 42
D|-88-----------------8-----------------|
A|-----888-88--6-8-------888--88--6-8---|

Line 43
D|---------6—3/5----|
A|-8-6-8------------|

Line 44
D|-88-----------------8----------------|
A|-----888-88--6-8-------888--88--6-8--|

Line 45
D|---------6—3/5---|
A|-8-6-8-----------|

Line 46
D|-88-----------------8-----------------|
A|-----888-88--6-8-------888--88--6-8---|

Line 47
D|-----------5---------|
A|--8-6-8--------6/3---|

Disclaimer -
The Content of this Site is Copyrighted and Sole Property of their Respective Owners and Strictly used for the Educational, Entertainment or fair use only or to Provide Information to the Users. HERE You may allowed to republish contents with a valid backlink to the original source.

Post a Comment Blogger

 
Top