0


TheDeepak Presents

PANI DA RANG Guitar Tabs Leads, Hindi song sung by Ayushmann Khurrana from the movie VICKY DONOR

TheDeepak.com
TheDeepak.com


Movie / Film / Album - Vicky Donor
Song - Pani Da Rang
Singer - Ayushmann Khurrana
Lyricist / Lyrics - Ayushmann Khurrana
Music Composer / Director - Rochak KohliAyushmann Khurrana
Actor / Actress - Ayushmann Khurrana, Yami Gautam, Annu Kapoor, Puja Gupta
-============================-
Note - Listen song carefully and figure out the Suitable Tabs for respective song.
-============================-

Pani Da Rang [TABS] 

Paani Da Rang Vekh Ke
G|-------4-4/7-4---------------------------------------|
D|-5-7--------------5-7-7-5---------------------------|   X2 Times

Paani Da Rang Vekh Ke
G|-------4-4/7-4---------------------------------------|
D|-5-7--------------5-7-7-5----4-2-------------------|

Akhiyan Cho Hanju Rulde
D|-2-555--7-5-4-2-2--------------------------------|
A|------------------------------------------------------|   X2 Times


Maahiya Na Aaya Mera, Maahiya Na Aaya
G|-9999-7-9-7-4-----7-4-4-2-4-4------------------|
D|-----------------------------------------------------|

Maahiya Na Aaya Mera, Maahiya Na Aaya
G|-9999-7-9-7-4-----7-4-4-2-4--2-----------------|
D|--------------------------------------5-4-----------|

Raanjhna Na Aaya Mera, Maahiya Na Aaya
D|-99-7-5--77-5-2-----99-7-5-7-7-----------------|
A|-----------------------------------------------------|

Maahiya Na Aaya Mera, Ranjhna Na Aaya
D|--99-7-5--7-7-5-2--5-4-2-------2-2--------------|
A|-------------------------------5---------------------|

Aakhan Da Noor Vekh Ke
G|-------4-4/7-4---------------------------------------|
D|-5-7--------------5-7-7-5---------------------------|   X2 Times

Akhiyan Cho Hanju Rulde
D|-2-555--7-5-4-2-2--------------------------------|
A|-----------------------------------------------------|   X2 Times


Kamli Ho Gyi Tere Bina
G|-12-12-11--9-7-99-9\4---------------------------|
D|------------------------------------------------------|

Aaja Ranjhan Mere
G|-7-44--22-44--------------------------------------|
D|------------------------------------------------------|

Kamli Ho Gyi Tere Bina
G|-12-12-11--9-7-99-9\4---------------------------|
D|------------------------------------------------------|

Aaja Ranjhan Mere
G|-7-44--22-44--------------------------------------|
D|------------------------------------------------------|

Baarish Barkha Sab Kuch Pai Gayi
G|------------------4----------------------------------|
D|-777777--5-7-------7-5-2------------------------|
A|------------------------------------------------------|

Aaya Ni Zind Mere
D|--5-4-2------2-2------------------------------------|
A|----------5-------------------------------------------|

Aakhan Da Noor Vekh Ke
G|-------4-4/7-4---------------------------------------|
D|-5-7--------------5-7-7-5---------------------------|   X2 Times

Akhiyan Cho Hanju Rulde
D|-2-555--7-5-4-2-2--------------------------------|
A|-----------------------------------------------------|   X2 Times


Kothe Utte Beh Ke
D|-555-4-55--4-2------------------------------------|
A|------------------------------------------------------|

Akhiyan Milaunde
D|-444-2-44-2-----------------------------------------|
A|------------------5------------------------------------|

Naa Jaana Mainu Kabhi Shod
D|--222-----------2------------------------------------|
A|--------33-55----------------------------------------|

Tere Utte Marda
D|-555-4-55--4-2------------------------------------|
A|------------------------------------------------------|

Pyar Tenu Karda
D|-444-2-44-2-----------------------------------------|
A|------------------5------------------------------------|

Mile Na Tujhe Koi Aur
D|--222-----------2------------------------------------|
A|--------33-55----------------------------------------|

Tu Bhi Aa Sabko Shod Ke
G|-------4-4/7-4---------------------------------------|
D|-5-7--------------5-7-7-5---------------------------|

Tu Bhi Aa Sabko Shod Ke
G|-------4-4/7-4---------------------------------------|
D|-5-7--------------5-7-7-5---------------------------|

Akhiyan Cho Hanju Rulde
D|-2-555--7-5-4-2-2--------------------------------|
A|-----------------------------------------------------|

Akhiyan Cho Hanju Rulde
D|-2-555--7-5-4-2-2--------------------------------|
A|------------------------------------------------------|


Paani Da Rang Vekh Ke
G|-------4-4/7-4---------------------------------------|
D|-5-7--------------5-7-7-5---------------------------|   X2 Times

Paani Da Rang Vekh Ke
G|-------4-4/7-4---------------------------------------|
D|-5-7--------------5-7-7-5----4-2-------------------|

Akhiyan Cho Hanju Rulde
D|-2-555--7-5-4-2-2--------------------------------|
A|-----------------------------------------------------|   X2 Times

New Version 4  Pani Da Guitar TABS  

E |—————————-10-7—–
B |——–8–10/12——————-8-10-10—
G |-9———————————
Pani da rang vekh ke

E |———————————-
B |———-8-8-8-8–10-10——————–
G |-9-9——————————–9-9-9——
Ankhiyan jo hanju rul de

E |-12-12-12-12–10–12———————-10-10————-
B |———————————–12-12—————–12–10—12-12-12–
Mahiya naa aaya mera, Mahiya naa aaya

E |-12-12-12-10-12—————–10-10————-
B |————————12-12—————-12–10—12-10-12-10-8—-
G |————————————————————————————9—
Mahiya naa aaya mera, Maahiya na aaya

E |———————————————————————————–
B |-12-12-10-8-10-10——————–8–12-12—-10-8-10-12-10-10-10——–
G |——————————-9————-
Ranjhna na aaya mera, Mahiya naa aaya

E |—————————————————————————-
B |-12-12-10-8-10-10——————–8–12-12—-10-8-10——————
G |——————————-9——————————————–9-9—–
Mahiya naa aaya mera, Ranjhna na aaya

E |—————————-10-7—–
B |——–8–10/12——————-8-10-10—
G |-9———————————
Ankhaan daa noor vekh ke

E |———————————
B |———-8-8-8-8–10-10——————–
G |-9-9——————————–9-9-9——
Akhiyan cho hanju rul de

E |-12-12-12-10———————————-10-10——————————
B |———————10-12-12-12-12—————————12-10–12-12-12—
G |—————————————————————————–
Kamli ho gayi tere bina, Aaja raanjhan mere

E |———————————-
B |-10-10-10-10-8-10-12-10——————8-8———–
G |—————————————–9-9—————-9——————–9-9-
D |——————————————————————–12-12————
Baarish barkha sab kuch beh gayi, Aaya ni jind mere

E |—————————-10-7—–
B |——–8–10/12——————-8-10-10—
G |-9———————————
Ankhaan daa noor vekh ke

E |———————————
B |———-8-8-8-8–10-10——————–
G |-9-9——————————–9-9-9——
Akhiyan cho hanju rul de

E |——————————————–
B |-8-8-7——————7-7—-8-8-7——————7–
G |—————9-9————————–9-9–
Kothe utte behke, ankhiyan milounde

E |———————————
B |———————————
G |-9-9-9-9—————–7-7—9-9-9——–
D |—————-9-9—————–
Na jaana hume tu kabhi chhod

E |——————————————–
B |-8-8-7——————7-7—-8-8-7——————7–
G |—————9-9————————–9-9–
Tere utte mar da, Pyaar tenu kar da

E |———————————
B |———————————
G |-9-9-9-9—————–7-7—9-9-9——–
D |—————-9-9—————–
Milega tujhe na koi aur
.
.
Tu bhi aa sabko chhod ke
Tu bhi aa sabko chhod ke
Meri ankhiyan cho anju rul de
Ankhiyan cho anju rul de

Paani da rang vekh ke
Paani da rang vekh ke
Paani da rang vekh ke

Ankhiyan cho anju rul de

Pani Da Rang Tab – Vicky Donor

B|—————-3-0————
G|—0-2\4—2——-0-2-2-0-
D|-2—————————–
Paani Da..Rang Vekh Ke (X 3)

G|—0—0-0-0-0-2-2————
D|-4——————–2-0-2—2-
Aankhiyaan Jo Anju Rul De (X 3)

E|-0-0-0-0—-0—————————–
B|————3—-0-0h3—-3-3-0—-0-0-
G|————————————-2—–
Maahiya Na Aaya Mera, Maahiya Na Aaya

E|-0-0-0-0—-0————————————
B|————3—0-0h3—-3-3-0—0—0——-
G|———————————–2—2—2-0—
D|————————————————–2-
Maahiya Na Aaya Mera, Maahiya Na Aaa..yaa…

B|-0-0————-0—-0-0——–0—0—
G|—–2-0-2-2————–2-0-2—2—2-
D|—————2—————————-
Raanjhana Na Aaya Mera, Maahiya Na Aaya

B|-0-0———————————
G|—–2-0-2-2——-0-0-0———–
D|—————-2-2———2-0-2-2-
Maahiya Na Aaya Mera, Raanjhana Na Aaa..yaa..

B|—————-3-0————
G|—0-2\4—2——-0-2-2-0-
D|-2—————————–
Aankhaan Da..Rang Vekh Ke (X 2)

G|—0—0-0-0-0-2-2————
D|-4——————–2-0-2—2-
Aankhiyaan Jo Anju Rul De (X 3)

E|-0-0————————-
B|—–3—0-0-0-0-3—–3-0—0-0-
G|——-2———————–2—–
Kamli Ho Gayi Tere Bina, Aaja Raanjhan Mere

E|-0-0—————————————————-
B|—–3—0-0-0-0-3—-3-0—0-0—-0—0———-
G|——-2———————-2———–2—2-0—–
D|——————————————————2-
Kamli Ho Gayi Tere Bina, Aaja Raanjhan Me..re..

B|———————-0—————————
G|-2-2-2-2-2-2-0-2—-2-0——0-0————
D|——————————2-2——2-0-0-2-2-
Baarish Barkha Sab Kuch Beh Gaya, Aaya Nahi Jind Mere

B|—————-3-0————
G|—0-2\4—2——-0-2-2-0-
D|-2—————————–
Aankhaan Da..Rang Vekh Ke (X 2)

G|—0—0-0-0-0-2-2————
D|-4——————–2-0-2—2-
Aankhiyaan Jo Anju Rul De (X 3)

G|-0-0—–0-0——-
D|—–4-4—–4-2h4-
Kothe Utte Baihke

G|-0-0—–0-0——-
D|—–4-4—–4-2h4-
Aankhiyaan Milaunde

D|-2-2-2-2—–0-0-2-
A|———-2-2——-
Na Jaana Main Tu Kabhi Chod

G|——–2———–
D|-4-4-4—4-4-2-0h2-
Tere Utte Marda

G|——–2———–
D|-4-4-4—4-4-2-0h2-
Pyaar Tenu Karda

D|-2-2-2-2—–0-0-2-
A|———-2-2——-
Milega Tujhe Na Koi Aur

B|—————-3-0————
G|—0-2\4—2——-0-2-2-0-
D|-2—————————–
Tu Bhi Aa.. Sabko Chod Ke (X 2)

G|—0—0-0-0-0-2-2————
D|-4——————–2-0-2—2-
Meri Aankhiyaan Jo Anju Rul De (X 3)

New Version 4  Pani Da Guitar CHORDS + STRUMMING | Vicky Donor  

Disclaimer -
The Content of this Site is Copyrighted and Sole Property of their Respective Owners and Strictly used for the Educational, Entertainment or fair use only or to Provide Information to the Users. HERE You may allowed to republish contents with a valid backlink to the original source.

Post a Comment Blogger

 
Top