0


TheDeepak Presents

SAAJNA Guitar Tabs Leads, Hindi song from the movie I ME AUR MAIN

TheDeepak.com
TheDeepak.com


Movie / Film / Album - I Me Aur Main
Song - Saajna
Singer - Falak
Lyricist / Lyrics - Kumaar
Music Composer / Director - Falak Shabir
Actor / Actress - John Abraham, Chitrangada, Prachi Desai
-============================-
Note - Listen song carefully and figure out the Suitable Tabs for respective song.
-============================-

Saajna [TABS] 

intro tabs

Lead Used At Start
B|-5544--5544--57--5544-5------| (Play 2 times)
G|------------------------------------|

B|------5-7-9977--9977—9-10-9977-9-----------|
G|-4-6-------------------------------------------------|

B|-5544--5544--57--5544-5-------------|
G|------------------------------------------|


Ek Tujhko Hi Bas Dekh Kar
D|-67-6666--------4------------------------------------|
A|-------------77----------------------------------------|

Bhuli Mujko Hi Meri Nazar
D|-67-6666--------4------------------------------------|
A|-------------77----------------------------------------|

Tujhko Shayed Nahi Hai Khabar
D|-67-6666--------4------------------------------------|
A|-------------77----------------------------------------|

Tujhko Jeete Hain Hum Kis Kadar
D|----------------44-------------------------------------|
A|-66---77777------------------------------------------|

Jude Jo Tere Khwab Se
B|--5-44----------5-4------------------------------------|
G|---------44-6-------------------------------------------|

To Tute Hum Need Se
B|--5-44----------5-4------------------------------------|
G|---------44-6-------------------------------------------|

Yeh Kaisa Tera Ishq Hai
B|--5-44----------5-4------------------------------------|
G|---------44-6-------------------------------------------|

Saajna
G|---------------66--------------------------------------|
D|--66--77--9-------------------------------------------|

Tere Bina Kabhi
G|-----6--4---------------------------------------------|
D|--6---------4-4-6------------------------------------|

Raatein Na Hon Meri
G|-----6--4---------------------------------------------|
D|--6---------4-4-6------------------------------------|

Tere Kareeb Hoon
G|-----6--4---------------------------------------------|
D|--6---------4-4-6------------------------------------|
A|---------------------6--------------------------------|

Mere Yeh Din Sabhi
D|-----------44------------------------------------------|
A|-66-77------------------------------------------------|

Jude Jo Tere Khwab Se
B|--5-44----------5-4------------------------------------|
G|---------44-6-------------------------------------------|

To Tute Hum Need Se
B|--5-44----------5-4------------------------------------|
G|---------44-6-------------------------------------------|

Yeh Kaisa Tera Ishq Hai
B|--5-44----------5-4------------------------------------|
G|---------44-6-------------------------------------------|

Saajna
G|---------------66--------------------------------------|
D|--66--77--9-------------------------------------------|

Check Out  Saajna intro TABS | Falak  

Intro tab
B---5-5-4-4—5-5-4-4—5—7—5-5-4-4-5-----------4--5-5-4-4—5-5-4-4—5—7—5-5-4-4-5-
G--------------------------------------------------4-6----------------------------------------------
D------------------------------------------------6--------------------------------------------------

B------7—9-9-7-7—9-9-7-7—9-10—9-9-7-7-9---9-7-5-4--5-5-4-4—5-5-4-4—5—7—5-5-4-4-5
G--8-9--------------------------------------------------------------------------------------------------
D-9------------------------------------------------------------------------------------------------------

Saajna intro TABS Falak

intro lead
b---------------------------------------
g--9-9--8-8--9-9--8-8--9-11--9-9--8-8--9
d---------------------------------------

b-------------------------------------------------
g----------8h9--99--88--99--88--9-11--99--88--9
d---9h11------------------------------------------

b----------------------------------------------------------------------
g------8-9-11--11/13-13--11-11---13-13--11-11--13-14--13-13--11-11--13
d-11-------------------------------------------------------------------

Check Out  Saajna CHORDS + STRUMMING Falak | I Me Aur Main  

Disclaimer -
The Content of this Site is Copyrighted and Sole Property of their Respective Owners and Strictly used for the Educational, Entertainment or fair use only or to Provide Information to the Users. HERE You may allowed to republish contents with a valid backlink to the original source.

Post a Comment Blogger

 
Top