0


TheDeepak Presents

Sawaar Loon Guitar Tabs Leads Chords + Strumming Pattern, Hindi song from the movie Lootera




PlayList 4 Video Song


Movie / Film / Album - Lootera
Song - Sawaar Loon
Singer - Monali Thakur
Lyricist / Lyrics - Amitabh Bhattacharya
Music Composer / Director - Amit Trivedi
Actor / Actress - Ranveer Singh, Sonakshi Sinha
-===============================-
Note - Listen song carefully and figure out the Suitable Strumming Pattern / Chords / Tabs for respective song. where,
D = Down Stroke Strum and U = Up Stroke Strum
Dm / D* / dm / small d = Muted Chuck Down Stroke Strum
Um / U* / um / small u = Muted Chuck Up Stroke Strum
-===============================-

Sawaar Loon [LYRICS] [TABS] [CHORDS] 
[Strumming Pattern: D DUDU D]

F                      C                           F
Hawa Ke Jhonke Aaj Mausamo Se Rooth Gaye
F                       C                          F
Fulon Ki Shookhiyan Jo Bhawre Aa Ke Loot Gaye
F                       A#                        F
Badal Rahi Hai Aaj Zindagi Ki Chaal Zara
F                       A#                      F
Isi Bahane Kyun Na Main Bhi Dil Ka Haal Zara
A#                          F
Sawaar Loon Sawaar Loon
A#                         F
Sawaar Loon Haye Sawaar Loon


F                              
Balam Ji Purane Hain
C         F      
Nayi Si Dhoop Hai
F        
Jo Palkein Khatkhta Raha Hai
C    F
Kiska Roop Hai
F                           A#
Sharartein Kare Jo Aise
F                     C                      F
Bhool Ke Hizaab Kaise Usko Naam Se
A#
Main Pukaar Loon
A#                          F
Sawaar Loon Sawaar Loon
A#                         F
Sawaar Loon Haye Sawaar Loon


F                      C                           F
Hawa Ke Jhonke Aaj Mausamo Se Rooth Gaye
F                       C                          F
Gulon Ki Shookhiyan Jo Bhawre Aa Ke Loot Gaye
F                       A#                        F
Badal Rahi Hai Aaj Zindagi Ki Chaal Zara
F                       A#                      F
Isi Bahane Kyun Na Main Bhi Dil Ka Haal Zara
A#                          F
Sawaar Loon Sawaar Loon
A#                         F

Sawaar Loon Haye Sawaar Loon

Click Here 4  Sawaar Loon Guitar Tabs Leads Tutorial  

Lead Played at Starting
D|--7-8-7-5-5-8------7-8-7-5-------7----------------|
A|---------------------------------8--------------------|

Line 1 (Hawa)
B|-------8----------------------------------------------|
G|-10-------10-777-9-7-9-------7--10-10-10-10----|
D|----------------------------10------------------------|

Line 2
B|-------8----------------------------------------------|
G|-10-------10-777-9-7-9-------7--10-10-10-10----|
D|----------------------------10------------------------|

Line 3
E|-------------------------------------10--8------------|
B|--10-10-10-10-11-10-11-10-11-----------8888---|

Line 4
E|-------------------------------------10--8------------|
B|--10-10-10-10-11-10-11-10-11-----------8888---|

Line 5 (Swaar Loon, Swaar Loon)
B|------8-----------------------------------------------|
G|-10------10-7-9-9---------7--10-------------------|
D|-----------------------10-----------------------------|

Line 6
B|------8-----------------------------------------------|
G|-10------10-7-9-9---------7--10-------------------|
D|-----------------------10-----------------------------|

Second Para

Line 7
E|--------------------------------------------10-10-8----|
B|-10-10-10-10-11-10-11-10-11-10-11---------------|

LIne 8
E|--------------------------------------------10-10-8----|
B|-10-10-10-10-11-10-11-10-11-10-11---------------|

Line 9
E|-13-13-12-8------------------10---------------------|
B|----------------11-11-8-11---------------------------|

Line 10
E|-10-12-8------------------------10------------------|
B|-------------10-10--------10-------------------------|
G|----------------------10-------------------------------|

Line 11
E|-10-12-8----------------------------------------------|
B|------------8-8-10-11-11-10-8----------------------|
G|------------------------------------10-----------------|

Line 12 (Swaar Loon, Swaar Loon)
B|------8-----------------------------------------------|
G|-10------10-7-9-9---------7--10-------------------|
D|-----------------------10-----------------------------|

Line 13
B|------8-----------------------------------------------|
G|-10------10-7-9-9---------7--10-------------------|
D|-----------------------10-----------------------------|

Disclaimer -
The Content of this Site is Copyrighted and Sole Property of their Respective Owners and Strictly used for the Educational, Entertainment or fair use only or to Provide Information to the Users. HERE You may allowed to republish contents with a valid backlink to the original source.

Post a Comment Blogger

 
Top