0

Get Free Updates in your Inbox
Follow us on:

TheDeepak Presents

Suno Na Sangemarmar Guitar Tabs Leads, Hindi song sung by Arijit Singh from the movie Youngistaan




PlayList 4 Video Song


Movie / Film / Album - Youngistaan
Song - Suno Na
Singer - Arijit Singh
Lyricist / Lyrics - Kausar Munir
Music Composer / Director - Jeet Ganguly
Actor / Actress - Jackky Bhagnani, Neha Sharma
-===============================-
Note - Listen song carefully and figure out the Suitable Tabs for respective song.
-===============================-

Suno Na Sangemarmar [TABS] 

B|-------------6----------------------------------------|
G|-5-5--7-8------8--7—7h8p7p5---------------------|
Suno na sangemarmar

G|--5--------------5-----------------------------------|
D|------8--6--5----------------------------------------|
Ki yeh minaren

B|----------6-------------------------------------------|
G|-5-7-8------8—7h8p7p5---------------------------|
Kuch bhi nahi hai

G|--5--------------5-----------------------------------|
D|------8--6--5----------------------------------------|
Aage tumhare

G|------------------5/7--------------------------------|
D|-8-8-6-----6-----------8----------------------------|
A|---------8--------------------------------------------|
Aaj is dil pe mere

G|-8/7--5------------(4/5-4)--------------------------|
D|----------8-6-5--------------------------------------|
Raaj tumhara

G|--4—5/7--5------------------------------------------|
D|---------------5/3---3/5-----------------------------|
Taaj tumhara

B|-------------6----------------------------------------|
G|-5-5--7-8------8--7—7h8p7p5---------------------|
Suno na sangemarmar

G|--5-------------8--7--5------------------------------|
D|------8---6-5----------------------------------------|
Ki yeh minaare (ending line)

Second Para

G|------5-7---------------------------------------------|
D|--8---------8--6-6--5--------------------------------|
Bin tere madham madham

G|----5-7-----------------------------------------------|
D|-8-------8-66--5-------------------------------------|
Bhi chal rahi hai dhadkan

G|-------5----------------------------------------------|
D|-7-8-----8-8--8-8/3---------------------------------|
Jab se mile tum humein

G|--------5---------------------------------------------|
D|-7-8-------8-8/9--9-9-------------------------------|
Aanchal se tere bandhe

G|-4—5/7--5--------------------------------------------|
D|--------------5/3---3/5--------------------------------|
Dil ud raha hai

B|-------------6------------------------------------------|
G|--5-5-7-8------8-7h8p7p5---------------------------|
Suno na aasmano

G|-5--------------5--------------------------------------|
D|-----8--6--5------------------------------------------|
Ke yeh sitare

B|----------6-------------------------------------------|
G|-5-7-8------8—7h8p7p5---------------------------|
Kuch bhi nahi hai

G|--5--------------5-----------------------------------|
D|------8--6--5----------------------------------------|
Aage tumhare

G|------------------5/7--------------------------------|
D|-8-8-6-----6-----------8----------------------------|
A|---------8--------------------------------------------|
Aaj is dil pe mere

G|-8/7--5------------(4/5-4)--------------------------|
D|----------8-6-5--------------------------------------|
Raaj tumhara

G|--4—5/7--5------------------------------------------|
D|---------------5/3---3/5-----------------------------|
Taaj tumhara

B|-------------6----------------------------------------|
G|-5-5--7-8------8--7—7h8p7p5---------------------|
Suno na sangemarmar

G|--5-------------8--7--5------------------------------|
D|------8---6-5----------------------------------------|
Ki yeh minaare (ending line)

Click Here 4  Suno Na Sangemarmar Chords Strumming Pattern  

Disclaimer -
The Content of this Site is Copyrighted and Sole Property of their Respective Owners and Strictly used for the Educational, Entertainment or fair use only or to Provide Information to the Users. HERE You may allowed to republish contents with a valid backlink to the original source.

Post a Comment Blogger

 
Top