0

Get Free Updates in your Inbox
Follow us on:

TheDeepak Presents

Tu Hi Hai Aashiqui Guitar Tabs Leads, Hindi song sung by Arijit Singh, Palak Muchhal from the movie Dishkiyaoon

TheDeepak.com
TheDeepak.com


Movie / Film / Album - Dishkiyaoon
Song - Tu Hi Hai Aashiqui
Singer - Arijit Singh, Palak Muchhal
Lyricist / Lyrics - Sanamjit Talwar
Music Composer / Director - Palash Muchhal
Actor / Actress - Harman Baweja, Sunny Deol, Ayesha Khanna, Aditya Pancholi, Prashant Narayanan, Anand Tiwari, Sumit Nijhawan, Hasan Zaidi
-===============================-
Note - Listen song carefully and figure out the Suitable Tabs for respective song.
-===============================-

Tu Hi Hai Aashiqui [TABS] 

Lead Line
E|-8--7-----------------------------8-------------------|
B|---------10-------------8---10-----------------------|

Note: Play above line 4 times or as you like.

Tu hi hai aashiqui
E|-7-8-7--8-8----7--5---------------------------------|
B|-------------------------------------------------------|

Tu hi aawargi
E|-5-7---5--7-7---5------------------------------------|
B|----------------------8--------------------------------|

Tu hi hai zindgi
E|-----5-------5-5---7----------------------------------|
B|-8-------8---------------------------------------------|

Tu hi juda
E|-8--7--5-5-------------------------------------------|
B|-------------------------------------------------------|

Tu ibtega meri
E|-7-8-7--8-8----7--5----------------------------------|
B|--------------------------------------------------------|

Tu inteha meri
E|-5-7---5--7-7---5------------------------------------|
B|----------------------8--------------------------------|

Tu hi mera jahaan
E|-----5-------5-5---7----------------------------------|
B|-8-------8---------------------------------------------|

Tu hi juda
E|-8--7--5-5-------------------------------------------|
B|-------------------------------------------------------|

Tu mere rubru
E|-10--12----10-12-12---13-12---------------------|
B|-------------------------------------------------------|

Har shey mein tu hi hu
E|-8-10--8-10-10---12-10---------------------------|
B|-------------------------------------------------------|

Tu pehli aarzoo
E|-7-8---7-8-8--10-8---------------------------------|
B|-------------------------------------------------------|

Tu hi juda
E|--8-5--8-7---------------------------------------------|
B|---------------------------------------------------------|

Now again repeat “Tu hi hai aashiqui” and following lines till “tu hi juda”.

Dil ne kaha tha na tadpega
E|----5--7-8-7-8--8-7---8/10--7-5-3----------------|
B|-5-----------------------------------------------------|

Fir aaj dil dhadke kyon jaye
E|-----3--5-7--7-5—7/8--7-5--5-5-----------------|
B|-3---------------------------------------------------|

Khwabon ne tay kiya tha khona
E|-----5--7-8--7-8--8---8/10---7-5-3---------------|
B|-5----------------------------------------------------|

Phir aaj kyon palat wo aaye
E|-----3--5-7---5-7---7/8---7-5---5-5-------------|
B|-3---------------------------------------------------|

Tujhmein likha hoon main
E|-10--12----10-12-12---13-12---------------------|
B|-------------------------------------------------------|

Tujhse judda hoon main
E|-8-10--8-10-10---12-10----------------------------|
B|-------------------------------------------------------|

Tu mera rog hai
E|-7-8---7-8-8--10-8---------------------------------|
B|-------------------------------------------------------|

Tu hi dawa
E|--8-5--8-7------------------------------------------|
B|------------------------------------------------------|

Now again repeat “Tu hi hai aashiqui” and following lines till “tu hi juda”

SECOND PARA.

Aadhi hai reguzar
E|-5/7---7-5----5-5-5--------------------------------|
B|------------------------------------------------------|

Aadha hai aasman
E|-10-8-7----777-------------------------------------|
B|------------------------------------------------------|

Aadhi hai manzilein
E|-8/10---10-8---88-8/13---------------------------|
B|------------------------------------------------------|

Aadha jahan
E|-13/10---10-8---7h8-7/5--------------------------|
B|------------------------------------------------------|

Tera hoon jaan le
E|-5/7---7-5---5-5-5---------------------------------|
B|------------------------------------------------------|

Rooh mujhse baandh le
E|-10-8-7---7-7-7------------------------------------|
B|------------------------------------------------------|

Baahon mein tham le
E|-10-8------------------------------------------------|
B|--------12-12-12--12-------------------------------|

Karde zinda
E|-12-10—10/12--8-7--------------------------------|
B|------------------------------------------------------|

Har shey mein tu
E|----------------12-----------------------------------|
B|-10--12-13-----------------------------------------|

Chappe chappe mein tu
E|-10-12-10-------------------------------------------|
B|-----------------13-12-13---------------------------|

Khwahish mein tu
E|-13/15---13-13-12---------------------------------|
B|------------------------------------------------------|

Kisse kisse mein tu
E|-10-12--10------------------------------------------|
B|-----------------13-12-13---------------------------|

Har dil mein tu
E|-----------------13----------------------------------|
B|-10-12--13------------------------------------------|

Fikron zikron mein tu
E|-12-12-13---15-15-15--17---15/17---------------|
B|------------------------------------------------------|

Tu hi hai aashiqui
E|-7-8-7--8-8----7--5----------------------------------|
B|--------------------------------------------------------|

Tu hi aawargi
E|-5-7---5--7-7---5------------------------------------|
B|----------------------8--------------------------------|

Tu hi hai zindgi
E|-----5-------5-5---7----------------------------------|
B|-8-------8---------------------------------------------|

Tu hi juda
E|-8--7--5-5-------------------------------------------|
B|-------------------------------------------------------|

Click Here 4  MORE Guitar Tabs 

Disclaimer -
The Content of this Site is Copyrighted and Sole Property of their Respective Owners and Strictly used for the Educational, Entertainment or fair use only or to Provide Information to the Users. HERE You may allowed to republish contents with a valid backlink to the original source.

Post a Comment Blogger

 
Top