0


TheDeepak Presents

ZINDA HAI TOH Guitar Tabs Leads, Hindi song from the movie BHAAG MILKHA BHAAG

TheDeepak.com
TheDeepak.com


Movie / Film / Album - Bhaag Milkha Bhaag
Song - Zinda
Singer - Siddharth Mahadevan
Lyricist / Lyrics - Prasoon Joshi
Music Composer / Director - Shankar-Ehsaan-Loy
Actor / Actress - Farhan Akhtar, Sonam Kapoor
-============================-
Note - Listen song carefully and figure out the Suitable Tabs for respective song.
-============================-

Zinda Hai Toh [TABS]

Starting Lead Music
G|-99-88-77-88----------------------|  (Play 3 times)

Zinda
G|--99-(-99-11-12------|
D|------------------12-)--|  (Lead Music in brackets)

Hai Toh
G|--99-(-99-11-12-------|
D|------------------12-)--|  (Lead Music in brackets)

Payala
G|--99-(-99-11-12------|
D|------------------12-)--|  (Lead Music in brackets)

Poora Bharle
B|-----8-----8------------------|
G|--9----11----9/12--11-9----|

Kancha
G|--99-(-99-11-12------|
D|------------------12-)--|  (Lead Music in brackets)

Phoote
G|--99-(-99-11-12------|
D|------------------12-)--|  (Lead Music in brackets)

Choora
G|--99-(-99-11-12-------|
D|------------------12-)---|  (Lead Music in brackets)

Kaanch Karle
B|-----8-----8-------------------------|
G|--9----11----9/12--11-9----------|

Zindgi ka je Ghara Le
D|--9-12-11-12-9-12-10-9----------|

Ek Saans Mein Chada le
G|-----------9-11---------------------|
D|-9-10-12-------12-10-9----------|

Hichkiyon Mein Kya Hai Maza
G|------------9-----------11-----------|
D|--9-10-12---9-10-12--------------|

Poora Marle
G|--14-12-11-12-9/12-11-----------|

Zinda
G|--99-(-99-11-12-------|
D|------------------12-)---|  (Lead Music in brackets)

Hai Toh
G|--99-(-99-11-12------|
D|------------------12-)--|  (Lead Music in brackets)

Payala
G|--99-(-99-11-12------|
D|------------------12-)--|  (Lead Music in brackets)

Poora Bharle
B|-----8-----8-----------------------|
G|--9----11----9/12--11-9--------|

Zinda
G|--99--------------------------------|

Check Out  ZINDA HAI TOH Guitar Leads, BHAAG MILKHA BHAAG

Opening Tune

B-5-5-5--4-4-4--3-3-4-4-4--5-5-5--4-4-4--3-3-4-4-4--

Vocals

B-5-5--5-5--5-5--5-8-7-8-5--8-7-5--
Zinda... Hai Toh... Pyaala... Pura Bhar Le.

B-5-5--5-5--5-5--5-8-7-8-5--8-7-5--
Kancha... Phute... Choora... Kaanch Kar Le.

G- 4-7-6-7--4-7-5-4--
Zindagi Ka Yeh Ghada Le.

B-------5-7--
G-4-4-7-----7-5-4
Ek Saans Mein Chadha Le.

B-------5--------7--
G-4-4-7---4-4-7-
Hichkiyon Mein Kya Hain Marna.

E-5--
B---8-7-5-5h7--
Poora Mar Le.

G-4-4-4-5-5--
D-----7----
Koyla Kaala Hai

G--4--
D-5--7-5--4-7-5--
Chattanon Ne Paala.

G-4-4-4--
D--------7--
Andar Kaala.

B---5-5-7-8-7-5---5--
G-4--------------7---7--
Baahar Kaala Par Saccha Hai Saala.

G-4-4-4-5-5--
D-----7----
Koyla Kaala Hai

G--4--
D-5--7-5--4-7-5--
Chattanon Ne Paala.

G-4-4-4--
D--------7--
Andar Kaala.

B---5-5-7-8-7-5---5--
G-4--------------7---7--
Baahar Kaala Par Saccha Hai Saala.

B-5-5--5-5--5-5--5-8-7-8-5--8-7-5--
Zinda... Hai Toh... Pyaala... Pura Bhar Le.

B-5-5--5-5--5-5--5-8-7-8-5--8-7-5--
Kancha... Phute... Choora... Kaanch Kar Le.

Tune

B-5-5-5--4-4-4--3-3-4-4-4--5-5-5--4-4-4--3-3-4-4-4--

Vocals

B-5-5--5-5--5-5--5-8-7-8-5--8-7-5--
Kancha... Phute... Choora... Kaanch Kar Le.


Tune (Electric Guitar Portion. Have To Play Very Very Fast.)

G-----4-5-4-5-4---4-5-4--4--
D-5-7-----------7---------7---7-5--

B--------------------------------5--
G-----4-5-4-5-4---4-5-4--4-5--
D-5-7-----------7---------7--

G-----4-5-4-5-4---4-5-4--4--
D-5-7-----------7---------7---7-5--

G-4-------------------------------4-7--
D--7-5-4-5-4-----------4-5-5-7--
A-------------7-5--5-7--

Vocals 

G-4-7-5-4--4-5--
D----------7----5-5--
Uljhe Kyu Pairon Mein Ye Khwaab.

B------------8-7--
G-4-4---4-7----7-7--
D-----7--
Kadmo Se Resham Kheench De.

G-4-7-5-4--4-5--
D----------7----5-5--
Piche Kuch Aage Ka Hisaab.

B------------8-7--
G-4-4---4-7----7-7--
D-----7--
Is Pal Ki Kyaari Seench De.

G-4-4---4-4--4-5--
D-----7-----7--
Aag Zuban Pe Rakh De.

G-4-4-4---4-4--4-5-7--
D-------7-----7--
Phir Chot Ke Hoth Bhi Gaayenge.

G-4---4-4-4--4-5--
D---7--
Ghaav Gungunaayenge.

E-----------------------5--
B----------------8-7-8---7-8-5-7--
G-4-4-4--4-4-4------------------7-7--
Tere Dard Geet Banjaayenge.

E-----------------5--
B-5-5--8-5--5-5---8-7-8-5--8-7-5--
Zinda... Hai Toh... Pyaala... Pura Bhar Le.

B-5-5--5-5--5-5--5-8-7-8-5--8-7-5--
Kancha... Phute... Choora... Kaanch Kar Le.

G- 4-7-6-7--4-7-5-4--
Zindagi Ka Yeh Ghada Le.

E-5--
B--8-7-5-5h7-5--
G---------------5-4--
Ek Saans Mein Chadha Le.

B-------5--------7-
G-4-4-7---4-4-7--
Hichkiyon Mein Kya Hain Marna.

E-7-5--
B-----8-7-5h7--
Poora Mar Le.

(G-4-4-4-5-5--
D-----7----
Koyla Kaala Hai

G--4--
D-5--7-5--4-7-5--
Chattanon Ne Paala.

G-4-4-4--
D--------7--
Andar Kaala.

B---5-5-7-8-7-5---5--
G-4--------------7---7--
Baahar Kaala Par Saccha Hai Saala.)- 4 times.

B-5-5--
Zinda.

Disclaimer -
The Content of this Site is Copyrighted and Sole Property of their Respective Owners and Strictly used for the Educational, Entertainment or fair use only or to Provide Information to the Users. HERE You may allowed to republish contents with a valid backlink to the original source.

Post a Comment Blogger

 
Top