TheDeepak !! The Deepak !! TheDeepakDotCom !!

Ajeeb Dastan Hai Ye Guitar Tabs - Dil Apna Aur Preet Parai

Ajeeb Dastan Hai Ye old song Guitar Tabs - Dil Apna Aur Preet Parai


The Deepak Presents guitar lesson tutorial for the song - "Ajeeb Dastan Hai Ye" from the movie - "Dil Apna Aur Preet Parai" . It's a very melodious song and I just love the way it's composed. To play this song you need to be comfortable playing Tabs.

Ajeeb Dastan Hai Ye Guitar Tabs - Dil Apna Aur Preet Parai
-===============================-

-===============================-
-===============================-

-===============================-
Song - Ajeeb Dastan Hai Ye
Movie - Dil Apna Aur Preet Parai
Actor / Actress - Raaj Kumar, Meena Kumari, Nadira
Singer - Lata Mangeshkar
Music - Shankar Jaikishan
Lyrics - Shailendra, Hasrat Jaipuri

Movie / Picture / Film - Dil Apna Aur Preet Parai
Director / Directed by - Kishore Sahu
Producer / Produced by - S. A. Bagar
Writter / Written by - Kishore Sahu, Madhusudan
Cinematography by - Josef Wirsching
Editing by - Kantilal B. Shukla
-===============================-
Note - Listen song carefully and figure out the suitable Strumming Pattern / Tabs / Chords for respective song. where,
D = Down Stroke Strum and U = Up Stroke Strum
Dm / D* / dm / small d = Muted Chuck Down Stroke Strum
Um / U* / um / small u = Muted Chuck Up Stroke Strum
-===============================-

-===============================-
{A}   Tabs With Chords Synchronization
-===============================-

E:7-7---9--7------------------------------
B:-----------9---7------9-----------------
G:-------------------9---------------------   Then play chord "D"
AJEEB DASATAN HAI YE,

E:7-7---9--7--------------------------------
B:-----------9---7------7p9-----------------
G:-------------------9-----------------------  Play chord  "A"
KAHAN SHURU KAHAN KHATAM,

E:--------------------------------------------
B:7-7---9--7---------------------------------
G:-------------9-8-6-8p6~~~----------------  Play chord "G"
YE MANZILEN HAI KAUNSI,

E:77---9--7--------------------------------
B:-----------9---7--------------------------
G:------------------6/9---------------------  Play chord "D"
NA WO SAMAJH SAKE NA HUM.

E:---------------------------------------------
B:---7-9-10--9-10--7/10---------------------
G:9--------------------------------------------  Play chord "A"
MUBARAKE TUMHE KE TUM,

E:9-7---9-7-------9-7~~~------------------
B:----------10-10---------------------------
G:-------------------------------------------  Play chord "D"
KISIKE NOOR HO GAYE,

E:11-11--9-11--9--9/11------------------------
B:-------------------------12--10---------------
G:-----------------------------------------------  Play chord "A"
KISIKE ITNE PAAS HO,

E:77---9--7---------------------------------
B:-----------9---7---------------------------
G:------------------6/9----------------------  Play chord "D"
KI SABSE DOOR HO GAYE.



-===============================-
{B}   OR Use Following Tabs  [B - Version]
-===============================-

Dil Apna Aur Preet Parai

E:9-7---9--7---------------
B:-----------9---7------9--
G:-------------------9------
KAHAN SHURU KAHAN KHATAM,


E:9-7---9--7---------------
B:-----------9---7------7--
G:-------------------9------
YE MANZILEN HAI KAUNSI,


E:----------------------------
B:9-7---9--7---------------
G:-------------9-8-6-8p6~~~ ---
NA WO SAMAJH SAKE NA HUM.


E:77---9--7---------------
B:-----------9---7---------
G:------------------9-9/4----
MUBARAKE TUMHE KE TUM,


E:---------------------------
B:---7-9-10--9-10--7-10------
G:9-----------------------
KISIKE NOOR HO GAYE,


E:9-7---9-7-------9-7~~~---
B:----------10-10-----------
G:-------------------------
KISIKE ITNE PAAS HO,


E:11-11--9-11--9--9h11p9-------
B:-------------------------12----
G:----------------------------
KI SABSE DOOR HO GAYE.


E:77---9--7---------------
B:-----------9---7---------
G:------------------9-9/4----



-===============================-
{C}   Use This Simple Tabs
-===============================-

Ajeeb Dastan Hai Ye

E:77---9--7-------------------------------
B:-----------9---7------9-----------------
G:-------------------9---------------------  (Then play chord "D")
AJEEB DASATAN HAI YE,


E:77---9--7------------------------------
B:-----------9---7------7-----------------
G:-------------------9---------------------  (Then play chord "A")
KAHAN SHURU KAHAN KHATAM,


E:-------------------------------------------
B:77-----9--7------------------------------
G:-------------9-8-9-8---------------------  (Then play chord "G")
YE MANZILEN HAI KAUNSI,


E:77---9--7--------------------------------
B:-----------9---7--------------------------
G:-------------------99---------------------  (Then play chord "D")
NA WO SAMAJH SAKE NA HUM.


E:------------------------------------------
B:----7-9--7-9--7-9----------------------
G:99--------------------------------------  (Then play chord "A")
MUBARAKE TUMHE KE TUM,


E:77---9-7-----9-7-----------------------
B:-----------99---------------------------
G:----------------------------------------  (Then play chord "D")
KISIKE NOOR HO GAYE,


E:11-11--9-9----7--------------------------
B:-------------------9--99------------------
G:-------------------------------------------  (Then play chord "A")
KISIKE ITNE PAAS HO,


E:--------------------------------------------
B:9-7--9-7----------------------------------
G:------------99--8-9-----------------------   (Then play chord "D")
KI SABSE DOOR HO GAYE.

Repeat From Ajeeb Dastan.... From The Beginning Again....


Labels:

Post a comment

[facebook]

MKRdezign

{twitter#https://twitter.com/vlsicoach}

Contact Form

Name

Email *

Message *

Powered by Blogger.
Javascript DisablePlease Enable Javascript To See All Widget